» » »

Zutons, Why Won't You Give Me Your Love? Tabs (ver.1)

Artists:  A B C D E F G H I J K L M N O P Q R S T U V W X Y Z # 

Why Won't You Give Me Your Love? Tabs (ver.1)

Zutons Tabs
 Rating:
4/5 (4 votes)
Why Won't You Give Me Your Love? lessons Tabs too difficult? Try these video lessons and learn fast
1
                The Zutons - Why Won't You Give Me Your Love?


While I wrote this there weren't any tabs for this song on the internet, so I sat for 
an hour
or 2 trying to figure out the song.  I am 95% sure it's correct, but it's missing the 
which
I've still got to figure out.


Main Riff/intro

e|-------------------------------------|
B|-------------------------------------|
G|-------------------------------------|
D|-------------------------------------|
A|---5-5----5-5----5--3-3----3-3----3--|
E|---3-3-6--3-3-6--3--1-1-4--1-1-4--1--|    X4

This is where Dave begins singing.

e|------------------|
B|------------------|
G|------------------|
D|---17-17--15-15---|
A|---17-17--15-15---|
E|---15-15--13-13---|    X4

e|-------------------------------------|
B|-------------------------------------|
G|-------------------------------------|
D|-------------------------------------|
A|---5-5----5-5----5--3-3----3-3----3--|
E|---3-3-6--3-3-6--3--1-1-4--1-1-4--1--|    X4

e|---------------------------------------------------|
B|---------------------------------------------------|
G|---------------------------------------------------|
D|---10-10-10-10--11-11-11-11--10-10-10-10--8-8-8-8--|
A|---10-10-10-10--11-11-11-11--10-10-10-10--8-8-8-8--|
E|---8--8--8--8---9--9--9--9---8--8--8--8---6-6-6-6--|    X2

Chorus

e|---------------------------------------|
B|---------------------------------------|
G|---------------------3-3-3-3-----------|
D|---5-5-5-5--3-3-3-3--3-3-3-3--5-5-5-5--|
A|---5-5-5-5--3-3-3-3--1-1-1-1--5-5-5-5--|
E|---3-3-3-3--1-1-1-1-----------3-3-3-3--|    X4

e|--------------------|
B|--------------------|
G|--------------------|
D|---5-5-5-5-5-5-5-5--|
A|---5-5-5-5-5-5-5-5--|
E|---3-3-3-3-3-3-3-3--|    X1

2nd Verse

e|-------------------------------------|
B|-------------------------------------|
G|-------------------------------------|
D|-------------------------------------|
A|---5-5----5-5----5--3-3----3-3----3--|
E|---3-3-6--3-3-6--3--1-1-4--1-1-4--1--|    X4

e|------------------------|
B|------------------------|
G|---------------------3b-|
D|---5--5-3--3-5--5-3--3b-|
A|---5--5-3--3-5--5-3--1b-|
E|---3--3-1--1-3--3-1-----|    X2

e|---------------------------------------------------|
B|---------------------------------------------------|
G|---------------------------------------------------|
D|---10-10-10-10--11-11-11-11--10-10-10-10--8-8-8-8--|
A|---10-10-10-10--11-11-11-11--10-10-10-10--8-8-8-8--|
E|---8--8--8--8---9--9--9--9---8--8--8--8---6-6-6-6--|    X2

Chorus

e|---------------------------------------|
B|---------------------------------------|
G|---------------------3-3-3-3-----------|
D|---5-5-5-5--3-3-3-3--3-3-3-3--5-5-5-5--|
A|---5-5-5-5--3-3-3-3--1-1-1-1--5-5-5-5--|
E|---3-3-3-3--1-1-1-1-----------3-3-3-3--|    X4

Where the solo cuts in

e|-----------------------|
B|-----------------------|
G|-----------------------|
D|---5-5--3-3--5-5--3-3--|
A|---5-5--3-3--5-5--3-3--|
E|---3-3--1-1--3-3--1-1--|    X1

"Why won't you give me your love?"

e|---------------------|
B|---------------------|
G|---------------------|
D|---5-5-5-5--3-3-3-3--|
A|---5-5-5-5--3-3-3-3--|
E|---3-3-3-3--1-1-1-1--|    X8

Short Break with just singing [where screaming breaks in]


"Why won't you give me your love" [while Dave's still screaming.]

e|---------------------|
B|---------------------|
G|---------------------|
D|---5-5-5-5--3-3-3-3--|
A|---5-5-5-5--3-3-3-3--|
E|---3-3-3-3--1-1-1-1--|    X8

Outro

e|-------------------------------------|
B|-------------------------------------|
G|-------------------------------------|
D|-------------------------------------|
A|---5-5----5-5----5--3-3----3-3----3--|
E|---3-3-6--3-3-6--3--1-1-4--1-1-4--1--|    X4

e|------|
B|------|
G|------|
D|---5--|
A|---5--|
E|---3--|
            
Submit corrections

comments powered by Disqus
↑ Back to top | Zutons Tabs for Why Won't You Give Me Your Love?. Lyrics for acoustic guitar and electric guitar. 1 Tablatures and chords are parodies/interpretations of the original songs. You may use it for private study, scholarship, research or language learning purposes only