» » »

Remember Me Tabs (ver.1)

Artists:  A B C D E F G H I J K L M N O P Q R S T U V W X Y Z # 

Remember Me Tabs (ver.1)

Zutons
Rating:
4/5 (2 votes)

Hard to play? Try these video lessons and learn fast.
                |-------------------------------------------------------------------|
Remember Me - by the Zutons
|-------------------------------------------------------------------|


Members
Abi Harding - saxophone
Boyan Chowdhury - guitars
David McCabe - vocals, guitar
Russell Pritchard - bass
Sean Payne - drums


Intro

e|--0-2--02---0-2--02-|
B|--1-3--13---1-3--13-|
G|--0-2--02---0-2--02-|    x2
D|--2-0--20---2-0--20-|
A|--3----3----3----3--|
E|--------------------|


Verse 1

         (G)                                     (Em)
e|--------3---------------------------------------0-|
B|--------0---------------------------------------0-|
G|--------0---------------------------------------0-|
D|--------0---------------------------------------2-|
A|--------2---------------------------------------2-|
E|--------3---------------------------------------0-|
  Well we used to be the best of friends, and we used to hang around

  (G)                                                  (Em)
e|-3----------------------------------------------------0-|
B|-0----------------------------------------------------0-|
G|-0----------------------------------------------------0-|
D|-0----------------------------------------------------2-|
A|-2----------------------------------------------------2-|
E|-3----------------------------------------------------0-|
  Now I always see you with your new girlfriend on the sunny side of town

         (G)                                                    (Em)
e|--------3------------------------------------------------------0-|
B|--------0------------------------------------------------------0-|
G|--------0------------------------------------------------------0-|
D|--------0------------------------------------------------------2-|
A|--------2------------------------------------------------------2-|
E|--------3------------------------------------------------------0-|
Oh your body is the same and your face isn’t changed, but your mind isn’t where that’s at


        (G)                                        (Em)
e|-------3-------------------------------------------0-|
B|-------0-------------------------------------------0-|
G|-------0-------------------------------------------0-|
D|-------0-------------------------------------------2-|
A|-------2-------------------------------------------2-|
E|-------3-------------------------------------------0-|
 You're too busy hugging and a-kissing now, and for you that can't be bad

     (C)	        (D)
e|----0-----------------2-|
B|----1-----------------3-|
G|----0-----------------2-|
D|----2-----------------0-|
A|----3-------------------|
E|----x-------------------|
  But I’ve made a deal with the clouds

       (C)                (D)
e|------0------------------2-|
B|------1------------------3-|
G|------0------------------2-|
D|------2------------------0-|
A|------3--------------------|
E|------x--------------------|
  Gunna turn that sun into rain


    (C)                   (D)
e|---0---------------------2-|
B|---1---------------------3-|
G|---0---------------------2-|
D|---2---------------------0-|
A|---3-----------------------|
E|---x-----------------------|
  So you forgot about your love


  (C)            (D)
e|-0--------------2-|
B|-1--------------3-|
G|-0--------------2-|
D|-2--------------0-|
A|-3----------------|
E|-x----------------|
  Come and see me again


Pre-Chorus

     (C)            (D)
e|----0--------------2-|
B|----1--------------3-|
G|----0--------------2-|
D|----2--------------0-|
A|----3----------------|
E|----x----------------|
  Oh remember me I’m your best friend


     (C)              (D)
e|----0----------------2-|
B|----1----------------3-|
G|----0----------------2-|
D|----2----------------0-|
A|----3------------------|
E|----x------------------|
  And we don’t talk no more


    (C)            (D)                 (C)                   (D)
e|---0--------------2-------------------0---------------------2-|
B|---1--------------3-------------------1---------------------3-|
G|---0--------------2-------------------0---------------------2-|
D|---2--------------0-------------------2---------------------0-|
A|---3----------------------------------3-----------------------|
E|---x----------------------------------x-----------------------|
  So if your in the neighbourhood don’t forget to knock at me door

Chorus

              (G)
e|-------------3-|
B|-------------0-|
G|-------------0-|
D|-------------0-|
A|-------------2-|
E|-------------3-|
  Because I've got to keep the feeling, keep the feeling in


  (Em)
e|-0-|
B|-0-|
G|-0-|
D|-2-|
A|-2-|
E|-0-|
  Gotta keep the feeling, keep the feeling in


  (G)
e|-3-|
B|-0-|
G|-0-|
D|-0-|
A|-2-|
E|-3-|
  Gotta keep the feeling, keep the feeling in



 (Em)
e|-0-|
B|-0-|
G|-0-|
D|-2-|
A|-2-|
E|-0-|
  Gotta keep the feeling, keep the feeling in

Solo

e----------3-----3----3--------12--------12------------10-|
B-----------3-----3---------------12--------12----12------|
G------2h4-----4----4------/12-------12--------12---------|
D-4-5-----------------------------------------------------|
A---------------------------------------------------------|
E---------------------------------------------------------|


e----------------------------------------------------------|
B-12-10h12p12—8\5----3-3h5p3---0h1p0-----------------------|
G-------------------------------------2--0--2--0-----------|
D----------------------------------------------------------|
A----------------------------------------------------------|
E----------------------------------------------------------|

The rest of the song is basically the same as this, just repeat this for the second 
chorus, and so on……
            
Hard to play? Try these video lessons and learn fast. | Correct




comments powered by Disqus
↑ Back to top | Tablatures and chords are parodies/interpretations of the original songs. You may use it for private study, scholarship, research or language learning purposes only