» » »

Zutons, Oh Stacey Look What Youve Done Tabs (ver.1)

Artists:  A B C D E F G H I J K L M N O P Q R S T U V W X Y Z # 

Oh Stacey Look What Youve Done Tabs (ver.1)

Zutons Tabs
 Rating:
4/5 (4 votes)
Oh Stacey Look What Youve Done lessons Tabs too difficult? Try these video lessons and learn fast
1
                im actually a bass player so this may be off a litttle

Intro       oh stacey look what youve done
E|75-777578732----------------------------7577757878
B|75-777578732----------------------------7577757878

Verse chords      Gtr 2 riffs            
|---------|      |----------|----------|----------|----------|
|---------|      |----6-----|----6-----|saxophone-|----6-----|
|---------|      |7755-754~~|7755-758~~|----------|7755-754~~|
|11--9----|
|11--9----|
|9 --7----| 

Chorus(made her father worry...)         
|9779-9779-9779-9779-9779-9779----| <---Gtr 2
|---------------------------------|  
|---------------------------------|  
|3333333333333333/5555555555555555|  
|3333333333333333/5555555555555555|x3
|1111111111111111/3333333333333333|  

chorus part 2
            oh stacey look what youve done
B|75-7775785------------------------------757775787

solo(not so sure about this)
|-------------------------------------------------------------|
|-----------1715-----------17----1517----1517171819-----------|
|151717-1715----17-----------1517----1517---------------------|
|-----------------777777777------------------------7777777777-|
|-----------------777777777------------------------7777777777-|
|-----------------555555555------------------------5555555555-|

Break(seventine,nineteen btw same above)
|---------------------|
|19~~-----------------|
|17~~-----------------|
|------9~~--11~~--9~~-|
|------9~~--11~~--9~~-|
|------7~~--9~~---7~~-|

Order
Intro
Verse
Chorus part 1
part 2
verse
chorus part 1
part 2
solo
break
chorus part 1
part 2
outro (havent worked out)
            
Submit corrections

comments powered by Disqus
↑ Back to top | Zutons Tabs for Oh Stacey Look What Youve Done. Lyrics for acoustic guitar and electric guitar. 1 Tablatures and chords are parodies/interpretations of the original songs. You may use it for private study, scholarship, research or language learning purposes only