» » »

Zutons, Always Right Behind You Tabs (ver.1)

Artists:  A B C D E F G H I J K L M N O P Q R S T U V W X Y Z # 

Always Right Behind You Tabs (ver.1)

Zutons Tabs
 Rating:
4/5 (5 votes)
Always Right Behind You lessons Tabs too difficult? Try these video lessons and learn fast
                Love this song but found out nobody has tabbed it! Little bits might be wrong because i 
it by ear but when you play you can just play it differently.
Enjoy:)

Key=
bottleneck slide=/

Intro
e--0-0---0--0--4-4-4-4-4-4-4-4-7-7-7-7-7-7-7-7-|
B--5-5---5--5--5-5-5-5-5-5-5-5-5-5-5-5-5-5-5-5-|
G----------------------------------------------|
D----------------------------------------------|
A----------------------------------------------|
E----------------------------------------------|

e---------------|
B---------------|
G---------------| X4
D-2--2-2--2-4-2-|
A-2--2-2--2-2-2-|
E-0--0-0--0-0-0-|

e-x-0-x-0-x-0--0-0--0-0--0--x-0-x-0-x-0-0-0--0-0--0-|
B-x-0-x-0-x-0--0-0--0-0--0--x-0-x-0-x-0-0-0--0-0--0-|
G-x-1-x-1-x-1--1-1--1-1--1--x-1-x-1-x-1-1-1--1-1--1-|
D-x-2-x-2-x-2--2-2--2-2--2--x-2-x-2-x-2-2-2--2-2--2-|
A-x-2-x-2-x-2--2-2--2-2--2--x-2-x-2-x-2-2-2--2-2--2-|
E-x-0-x-0-x-0--0-0--0-0--0--x-0-x-0-x-0-0-0--0-0--0-|

e---------------|
B---------------|
G---------------| X4
D-2--2-2--2-4-2-|
A-2--2-2--2-2-2-|
E-0--0-0--0-0-0-|

e-0-0-x-0-x-0--0-0--0-0--0--0-0-x-0-x-0-0-0--0-0--0-|
B-0-0-x-0-x-0--0-0--0-0--0--0-0-x-0-x-0-0-0--0-0--0-|
G-1-1-x-1-x-1--1-1--1-1--1--1-1-x-1-x-1-1-1--1-1--1-|
D-2-2-x-2-x-2--2-2--2-2--2--2-2-x-2-x-2-2-2--2-2--2-|
A-2-2-x-2-x-2--2-2--2-2--2--2-2-x-2-x-2-2-2--2-2--2-|
E-0-0-x-0-x-0--0-0--0-0--0--0-0-x-0-x-0-0-0--0-0--0-|

e---------------------------------|
B---------------------------------|
G-4-4-4-4-4-4-4-3-2-2-2-2-2-2-2-3-| X2 (but without the last power chord)
D-4-4-4-4-4-4-4-3-2-2-2-2-2-2-2-3-|
A-2-2-2-2-2-2-2-1-0-0-0-0-0-0-0-1-|
E---------------------------------|

All done with slide
e----------------------------------------------------12~~-|
B-5--3-0-3-5-9-5--12---10-8-10-10-10-10-8-5-5---10-12~~~~-|
G---------------------------------------------------------|
D--------------------------------------------X2-----------|
A---------------------------------------------------------|
E---------------------------------------------------------|

e---------------|
B---------------|
G---------------| X4
D-2--2-2--2-4-2-|
A-2--2-2--2-2-2-|
E-0--0-0--0-0-0-|

e-0-0-x-0-x-0--0-0--0-0--0--0-0-x-0-x-0-0-0--0-0--0-|
B-0-0-x-0-x-0--0-0--0-0--0--0-0-x-0-x-0-0-0--0-0--0-|
G-1-1-x-1-x-1--1-1--1-1--1--1-1-x-1-x-1-1-1--1-1--1-|
D-2-2-x-2-x-2--2-2--2-2--2--2-2-x-2-x-2-2-2--2-2--2-|
A-2-2-x-2-x-2--2-2--2-2--2--2-2-x-2-x-2-2-2--2-2--2-|
E-0-0-x-0-x-0--0-0--0-0--0--0-0-x-0-x-0-0-0--0-0--0-|

e---------------|
B---------------|
G---------------| X4
D-2--2-2--2-4-2-|
A-2--2-2--2-2-2-|
E-0--0-0--0-0-0-|

e-0-0-x-0-x-0--0-0--0-0--0--0-0-x-0-x-0-0-0--0-0--0-|
B-0-0-x-0-x-0--0-0--0-0--0--0-0-x-0-x-0-0-0--0-0--0-|
G-1-1-x-1-x-1--1-1--1-1--1--1-1-x-1-x-1-1-1--1-1--1-|
D-2-2-x-2-x-2--2-2--2-2--2--2-2-x-2-x-2-2-2--2-2--2-|
A-2-2-x-2-x-2--2-2--2-2--2--2-2-x-2-x-2-2-2--2-2--2-|
E-0-0-x-0-x-0--0-0--0-0--0--0-0-x-0-x-0-0-0--0-0--0-|

e---------------------------------|
B---------------------------------|
G-4-4-4-4-4-4-4-3-2-2-2-2-2-2-2-3-| X2 (but without the last power chord)
D-4-4-4-4-4-4-4-3-2-2-2-2-2-2-2-3-|
A-2-2-2-2-2-2-2-1-0-0-0-0-0-0-0-1-|
E---------------------------------|

e-0-0-x-0-x-0--0-0--0-0--0--0-0-x-0-x-0-0-0--0-0--0-|
B-0-0-x-0-x-0--0-0--0-0--0--0-0-x-0-x-0-0-0--0-0--0-|
G-1-1-x-1-x-1--1-1--1-1--1--1-1-x-1-x-1-1-1--1-1--1-|
D-2-2-x-2-x-2--2-2--2-2--2--2-2-x-2-x-2-2-2--2-2--2-|
A-2-2-x-2-x-2--2-2--2-2--2--2-2-x-2-x-2-2-2--2-2--2-|
E-0-0-x-0-x-0--0-0--0-0--0--0-0-x-0-x-0-0-0--0-0--0-|

Breakdown(without slide)
e-12-12-12-14-14-14-------------------------------------14-14-14----------|
B-------------------15-15-15-12-12-12-15-15-15-14-14-14----------15-15-15-|
G-------------------------------------------------------------------------|X2
D-------------------------------------------------------------------------|
A-------------------------------------------------------------------------|
E-------------------------------------------------------------------------|

e-12-12-12-14-14-14-15-15-15-17-17-17-19-19-19-17-17-17-15-15-15-14-14-14-|
B-------------------------------------------------------------------------|
G-------------------------------------------------------------------------|
D-------------------------------------------------------------------------|
A-------------------------------------------------------------------------|
E-------------------------------------------------------------------------|

Solo(with echo & slide)
e------12~---------12~---10-10-10-10-10-10-12~~~----------12~---------12~-|
B-10-12~~~----10-12~~~-------------------------------10-12~~~----10-12~~~-|
G-------------------------------------------------------------------------|
D-------------------------------------------------------------------------|
A-------------------------------------------------------------------------|
E-------------------------------------------------------------------------|

e------12~-10-10-----12~-10-10-----12~-10-10------------------------------|
B-10-12~~~------10-12~~~------10-12~~~------10-12-12-12-10-8-8------------|
G-------------------------------------------------------------------------|
D-------------------------------------------------------------------------|
A-------------------------------------------------------------------------|
E-------------------------------------------------------------------------|

e------12~-10-10-----12~-10-10-----12~-10-10--------------------------------|
B-10-12~~~------10-12~~~------10-12~~~------10-15--15-17--15-15-15-15-15-17-|
G---------------------------------------------------------------------------|
D---------------------------------------------------------------------------|
A---------------------------------------------------------------------------|
E---------------------------------------------------------------------------|

e-17-15----------------------------17-15----------------------------17-15-|
B------17-15-17--15-15-15-15-15-17------17-15-17--15-15-15-15-15-17-------|
G-------------------------------------------------------------------------|
D-------------------------------------------------------------------------|
A-------------------------------------------------------------------------|
E-------------------------------------------------------------------------|

e-------------------------------------------------------------------------|
B-17-15-17--15-15-15-15-15-17-17-17-17-17-17-17---------------------------|
G-------------------------------------------------------------------------|
D-----------------------------------------------2-2-2222222222222---------|
A-----------------------------------------------2-2-2222222222222---------|
E-----------------------------------------------0~0~0000000000000---------|
            
Submit corrections

comments powered by Disqus
↑ Back to top | Zutons Tabs for Always Right Behind You. Lyrics for acoustic guitar and electric guitar. Tablatures and chords are parodies/interpretations of the original songs. You may use it for private study, scholarship, research or language learning purposes only