» » »

Zurdok, Tropece Tabs (ver.1)

Artists:  A B C D E F G H I J K L M N O P Q R S T U V W X Y Z # 

Tropece Tabs (ver.1)

Zurdok Tabs
 Rating:
4/5 (4 votes)
Tropece lessons Tabs too difficult? Try these video lessons and learn fast
1
                Zurdok
Tropecé
 
Tuning: Dropped D
                                             x2
e-------------------------12--13---------------||----------
b---------13/15--13~--15----------11---10--13--||----------
g----10~---------------------------------------||----------
d----------------------------------------------||----------
A----------------------------------------------||----------
D----------------------------------------------||---3/15~--

Verso(Con fill 1 en el fondo)
Al principio al tropezar...
                                       x3
e----------------------------------------
b----------------------------------------
g------------5-5-5-5-----------3-3-3-3---
d--3-3-3-3---5-5-5-5--0-0-0-0--3-3-3-3---
A--3-3-3-3---3-3-3-3--0-0-0-0--1-1-1-1---
D--3-3-3-3------------0-0-0-0------------

Se deslizaba por la alfombra, desesperado talvez...

e-------------------------------------
b-------------------------------------
g--------------5-5-5-5---6-6---4------
d-----3-3-3-3--5-5-5-5---6-6---4------
A-----3-3-3-3--3-3-3-3---4-4---2------
D-----3-3-3-3-------------------------

Coro:
Para que alegar...                              
                                                x2
e-----------------------------------------------
b-----------------------------------------------
g--8-8---------5-5------------------------------
d--8-8---5-5---5-5---1-1---6-6---4---6-6--6-----
A--6-6---5-5---3-3---1-1---6-6---4---6-6--6-----
D--------5-5---------1-1---6-6---4---6-6--6-----

Fill2
                                               
e-------------------------13--14---------------||----------
b---------14/16--14~--16----------12---11--13--||----------
g----11~---------------------------------------||----------
d----------------------------------------------||---4-x----
A----------------------------------------------||---4-x----
D----------------------------------------------||---4-x----

Verso(Con fill2 en el fondo)

Con el tiempo al tropezar...  Se hizo normal....
                                                             x2
e-------------------------||-----------------------------------
b-------------------------||-----------------------------------
g-----------6-6-------4-4-||----------6-6-6-6-----------4-4-4-4
d------4-4--6-6--1-1--4-4-||-4-4-4-4--6-6-6-6--1-1-1-1--4-4-4-4
A------4-4--4-4--1-1--2-2-||-4-4-4-4--4-4-4-4--1-1-1-1--2-2-2-2
D------4-4-------1-1------||-4-4-4-4-----------1-1-1-1---------

Si quedan rastros de mi sombra...
         
e--------------------------------------------
b--------------------------------------------
g--------------6-6-6-6---7-7---5---7-7---5---
d-----4-4-4-4--6-6-6-6---7-7---5---7-7---5---
A-----4-4-4-4--4-4-4-4---5-5---3---5-5---3---
D-----4-4-4-4--------------------------------

Coro:
Para que alegar...
                                                      x2
e-------------------------------------------------------
b-------------------------------------------------------
g--12-12---------9-9---5-5------------------------------
d--12-12---9-9---9-9---5-5---10-10---8-8---10-10---10---
A--10-10---9-9---7-7---5-5---10-10---8-8---10-10---10---
D----------9-9---------5-5---10-10---8-8---10-10---10---

Interlude

Tropece...
                        x2                              
e-------------------------||-------------------------||-----------
b-------------------------||-------------------------||-----------
g------3~-----------------||-------------------------||-------3~--
d-5-5--2~--3-3-3-3-3-3-3--||-3-3-3-3-3-3-3-3-3-3-3-3-||--5-5--2~--
A-5-5--3~--3-3-3-3-3-3-3--||-3-3-3-3-3-3-3-3-3-3-3-3-||--5-5--3~--
D-5-5------3-3-3-3-3-3-3--||-3-3-3-3-3-3-3-3-3-3-3-3-||--5-5------

Intrumental
                                                       x2
e-------------------------------------------------------
b-------------------------------------------------------
g--12-12---------9-9---5-5------------------------------
d--12-12---9-9---9-9---5-5---10-10---8-8---10-10---10---
A--10-10---9-9---7-7---5-5---10-10---8-8---10-10---10---
D----------9-9---------5-5---10-10---8-8---10-10---10---

Outro

Tropece...
                          x4
e-------------------------||------------
b-------------------------||------------
g------3~-----------------||--------3~--
d-5-5--2~--3-3-3-3-3-3-3--||--5-5---2~--
A-5-5--3~--3-3-3-3-3-3-3--||--5-5---3~--
D-5-5------3-3-3-3-3-3-3--||--5-5-------

End

To all those fellows Zurdok fans..
            
Submit corrections

comments powered by Disqus
↑ Back to top | Zurdok Tabs for Tropece. Lyrics for acoustic guitar and electric guitar. 1 Tablatures and chords are parodies/interpretations of the original songs. You may use it for private study, scholarship, research or language learning purposes only