» » »

Zurdok, Gallito Ingles Bass tabs (ver.1)

Artists:  A B C D E F G H I J K L M N O P Q R S T U V W X Y Z # 

Gallito Ingles Bass tabs (ver.1)

Zurdok Tabs
Rating:
0/5 (0 votes)
Gallito Ingles lessons Tabs too difficult? Try these video lessons and learn fast
                
Qué onda. Lo mejor de lo mejor, aquí les traigo mi mismo desmadre en Bass line; disfruten.

Aquí la afinación es diferente a la standard, pues tiene
influencias pesadas. La afinación correcta es: C, G, C, F.

Ya sabrás cuántas veces tocar cada barra.

Introducción.
-------------------------|-----------------------|--------------------------
-------------------------|-----------------------|--------------------------
---------------4-4-------|--------------4-4--4-4-|------------4-4-4-4-4-4-4-
-0-3-5-3-0-6-0-----4-3-4-|0-3-5-3-0-6-0----------|0-3-5-3-0-6---------------

Verso.
F|-----------------------|
C|-----------------------|
G|---------------4-------|
C|-0-3-5-3-0-6-0---4-4-3-|

Coro.
F|-------------------------|--------------------------|
C|-------------------------|--------------------------|
G|---------------4-4-------|------------4-4-4-4-4-4-4-|
C|-0-3-5-3-0-6-0-----4-3-4-|0-3-5-3-0-6---------------|

Verso 2.
F|-----------------------|
C|-----------------------|
G|---------------4-------|
C|-0-3-5-3-0-6-0---4-4-3-|

Coro.
F|-------------------------|--------------------|-------------------------|
C|-------------------------|--------------------|-------------------------|
G|---------------4-4-------|------------4-4--4-4|---------------4-4-4-4-4-|
C|-0-3-5-3-0-6-0-----4-3-4-|0-3-5-3-0-6---------|-0-3-5-3-0-6-0-----------|

Puente.
F|--------------------------------------------|-------------------|
C|--------------------------------------------|-------------------|
G|--------------------------------------------|-------------------|
C|-0-3-0-3/6--0-3-0-3/6--0-3-0-3/6--0-3-0-3/6-|-6-5-6-5-5-6--0~~~-|

Solo.
F|-----------------------|--------------|
C|-----------------------|--------------|
G|---------------4-------|--------------|
C|-0-3-5-3-0-6-0---4-4-x-|-6-5--6-6-6-6-|

¡Eso es todo! Únicamente escucha la canción y repite cada barra
tantas veces sean necesarias.

¡Comentarios bienvenidos!
            

comments powered by Disqus
↑ Back to top | Zurdok Bass for Gallito Ingles. Lyrics for acoustic guitar and electric guitar. Tablatures and chords are parodies/interpretations of the original songs. You may use it for private study, scholarship, research or language learning purposes only