» » »

Derrumbe Del Desfile Tabs (ver.1)

Artists:  A B C D E F G H I J K L M N O P Q R S T U V W X Y Z # 

Derrumbe Del Desfile Tabs (ver.1)

Zurdok
Rating:
0/5 (0 votes)

Hard to play? Try these video lessons and learn fast.
                Zurdok Movimiento
Derrumbe del Desfile

Tuning: Dropped D

Intro
          D7
e-----------------------------
b-----------------------------
g---5--------5----------------
d-----4----4---4----4---------
A--------5--------5-----------
D-----------------------------
  D7                   D7                   D7               x2
e--------------------------------------------------------------
b--------------------------------------------------------------
g-5--------------------5--------------------5------------------
d-4-------------3p2----4-------------3p2----4------------------
A-5-----------------5--5-----------------5--5------------------
E-0--3-5-6b-5-3--------0--3-5-6b-5-3--------0--5-7-8-5-6-5-3---


Estoy... divagando solo con mi ser
e--------------3p1--------------------3p1------------------
b------------------3----------------------3----------------
g--5/-7---10/---------5---/5----7---10-------5-5-----------
d--5/-7---10/---------5--5/5----7---10-------5-5--5--------
A--3/-5---8-/---------3--2/3----5---8--------3-3--2--------
E----------------------------------------------------------


precoro

Estas entre dos palabras

e-------------------------------------------------/---------------
b-------------------------------------------------/---------------
g-------------------------------------------------/---------------
d-------------------------------------------------/---------------
A-----------5-----------5----------5------------5-/---------------
E---0-0-3-4-----0-0-3h4----0-0-3-4-----0-0--3h5---/---0-3-5-6-3---

Coro

Estas adentro no lo vez

e--------------------------------------------/--------------
b--------------------------------------------/--------------
g---5--------------------5-------------------/---5--5/------
d---4--------------------4-------------------/---4--4/------
A---5--------------------5-------------------/---5--5/------
E--0----7-9-10-9-6-5-3--0---7-9-10-9-6-5-3-0-/---0--0-------

End
            
Hard to play? Try these video lessons and learn fast. | Correct




comments powered by Disqus
↑ Back to top | Tablatures and chords are parodies/interpretations of the original songs. You may use it for private study, scholarship, research or language learning purposes only