» » »

Zurdok, Abre Los Ojos Bass tabs (ver.1)

Artists:  A B C D E F G H I J K L M N O P Q R S T U V W X Y Z # 

Abre Los Ojos Bass tabs (ver.1)

Zurdok Tabs
Rating:
0/5 (0 votes)
Abre Los Ojos lessons Tabs too difficult? Try these video lessons and learn fast
                Tab  de: RadioheadBassMexico

  
Intro
*RIFF 1*
G|-----------|----------|----------|----------|-----|
D|-----------|----------|----------|----------|-----|
A|-0-0~--030-|--0~--030-|--0~--030-|--0~--030-|-0~~-|
E|------0----|-0---0----|-0---0----|-0---0----|-----|

Verso 1
**RIFF 2**
G|---------------------------|-----------|-------|
D|---------------------------|-----------|-------|
A|-0~--------2-------5h7-----|-0~-----2*-|-3*-5*-|*jalas fuerte la cuerda
E|------1-1-----0-0-----4h5--|----1-1----|-------|

Abre la ventana 
Y ve la luz del sol
Abre la ventana
Y mirate

Pre-Coro? 1
***RIFF 3***
G|----------------------|
D|----------------------|(son 'unos', no onces, en toda la rola
A|---------/5-555///0~~-| es igual, puros unos)
E|--11-111--------------|

Abre los ojos bien
Abre los ojos bien

Verso 2
**RIFF 2**
G|---------------------------|----------|-------|
D|---------------------------|----------|-------|
A|-0~--------2-------5h7-----|-0~-----2-|-3*-5*-|*jalas fuerte la cuerda
E|------1-1-----0-0-----4h5--|----1-1---|-------|

Salte de la casa
Y mira alrededor
Salte de la casa
Y buscame

Pre-Coro?2
****RIFF 4****
G|------------------------|
D|--333-333-33------------|
A|------------345-53------|
E|------------------4--5--|

Abre los ojo bien
Abre los ojos
Fijate bien

~~~~~~~~~~~~~~~~~~~~~~~~~~~~~~~~~~~~~~~~~~~~~~~~~~~~~~~~~~~~~~~~~~~~~~
Coro 1 (1ra parte)
G|-------|------|------------|--------|--------------|
D|-------|------|------------|--------|---------*2---|*ya sabes
A|-------|------|------/5555-|-3-----2|222-5555------|(lo de la cuerda)
E|--55//-|-44//-|-1111-------|---023--|-----------*4-|

Esta oscuridad 
Te puede ahogar
Te quiere matar

Coro 1 (2da parte)
G|-------|------|------------|--------|----|------------------------------|
D|-------|------|------------|--------|----|2-XX2-XX2-XX2-XX2-------------|
A|-------|------|------/5555-|-3-----2|222-|------------------------------|
E|--55//-|-44//-|-1111-------|---023--|----|------------------XX1-XX1-XX1-|

Esta oscuridad
Te puede ahogar
Te quiere olvidar

       Bridge(1ra parte)
G|-----------|----------|---------|-------|---------|-------|
D|-----------|----------|---------|-------|---------|-------|
A|-0-0~--030-|--0~--030-|-0~----2~|-3*-5*-|-0~----2~|-3*-5*-|
E|------0----|-0---0----|----1~---|-------|----1~---|-------|
*jalas juerte la cuerda

Pre-Coro?3
G--------------------|
D-333-333------------|
A---------345-55-555-|
E--------------------|

Abre los ojos bien
Abre los ojos bien

Bridge (2da parte)
G---------|-------|---------|-------|
D---------|-------|---------|-------|
A-0~----2~|-3*-5*-|-0~----2~|-3*-5*-|
E----1~---|-------|----1~---|-------|

Pre-Coro?4
****RIFF 4****
G|----------------------|
D|--333-333-------------|
A|----------345-53------|
E|----------------4--5--|

Abre los ojo bien
Abre los ojos
Fijate bien

Coro 2 (1ra parte)
G|-------|------|------------|--------|--------------|
D|-------|------|------------|--------|---------*2---|*aja
A|-------|------|------/5555-|-3-----2|222-5555------|(lo de la cuerda)
E|--55//-|-44//-|-1111-------|---023--|-----------*4-|

Esta oscuridad 
Te puede ahogar
Te quiere matar

Coro 2 (2da parte)
G|-------|------|------------|--------|----|-------------------------------------------------------|
D|-------|------|------------|--------|----|2-XX2-XX2-XX2-XX2--------------------------------------|
A|-------|------|------/5555-|-3-----2|222-|-------------------------------------------------------|
E|--55//-|-44//-|-1111-------|---023--|----|-----------------XX1-XX1-XX1(..muchas veces,creo que 6)|

Esta oscuridad
Te puede ahogar
Te quiere olvidar


Solo de Guitarra
x2
G|-------|-------|-------|-------|-------|-------|-------|-------|
D|-------|-------|-------|-------|-------|-------|-------|-------|
A|-0-xx0-|-2-xx2-|-3-xx3-|-------|-5-xx5-|-3-xx3-|-------|-------|
E|-------|-------|-------|-1-xx1-|-------|-------|-1-xx1-|-3*-4*-|
                                                                  

Y terminamos con:

G|--------|
D|--------|
A|--0~~~--|
E|--------|

Suerte...Diviértanse sacándola no esta difícil pero lleva muchas variaciones escuchenla chido pa ke vean los cambios
            

comments powered by Disqus
↑ Back to top | Zurdok Bass for Abre Los Ojos. Lyrics for acoustic guitar and electric guitar. Tablatures and chords are parodies/interpretations of the original songs. You may use it for private study, scholarship, research or language learning purposes only