» » »

Zug Island, The River Tabs (ver.1)

Artists:  A B C D E F G H I J K L M N O P Q R S T U V W X Y Z # 

The River Tabs (ver.1)

Zug Island Tabs
 Rating:
4/5 (4 votes)
The River lessons Tabs too difficult? Try these video lessons and learn fast
1
                Zug Izland-The River

THIS IS DROP D TUNING

Verse (With Tremolo Pedal)
e--------------------------------
B--------------------------------
G--------------------------------
D-5----3----7---5----3----0------
A-5----3----5---5----3----0------
D-5----3--------5----3----0------


CHORUS(Do an Upstroke to the note in parenthesis)
e---------------------------------------(2)---
B---------------------------------------(3)---
G---------------------------------------(2)---
D-5----3---2-3--0----0-5--3-5-3--2-3-0--------
A-5----3---2-3--0----0-5--3-5-3--2-3-0--------
D-5----3---2-3--0----0-5--3-5-3--2-3-0--------


Bridge
e---------------------------------------------------------
B---------------------------------------------------------
G---------------------------------------------------------
D--------------0~-2-3-------0----0----0----0--2-3---------
A--------------0~-2-3-(X4)--0-b3-0-b3-0-b3-0--2-3---(x4)--
D-(pick scr*pe)0~-2-3-------0----0----0----0--2-3---------
            
Submit corrections

comments powered by Disqus
↑ Back to top | Zug Island Tabs for The River. Lyrics for acoustic guitar and electric guitar. 1 Tablatures and chords are parodies/interpretations of the original songs. You may use it for private study, scholarship, research or language learning purposes only