» » »

Synplicity Tabs (ver.1)

Artists:  A B C D E F G H I J K L M N O P Q R S T U V W X Y Z # 

Synplicity Tabs (ver.1)

Zug Island
Rating:
0/5 (0 votes)

Hard to play? Try these video lessons and learn fast.
                
 

 

/=Slide
b=Bend
H=Hammer On
P=Pull Off
(S)=Pick Scr*pe
~=Let Note Ring

ABK/Madrox/Blaze Verse
e----
B----
G-7--
D-7--
A-5--
E----
This is just played a few times in their verses randomly. The trick is, start with the volume knob all the way down, hit the note, and turn the knob up as the note is playing. Pretty cool.

Syn Verse 
e-----------------------|------------------------------------------
B-----------------------|------------------------------------------
G-7------7-----7------7-|-7------7-----5h6h7p6p5--7------7---------
D-7--5---7-xx--7—-5---7-|-7--5---7-xx-------------7--5---7-xx------
A-5--3b--5-xx--5--3b--5-|-5--3b--5-xx-------------5--3b--5-xx—(s)--
E-----------------------|------------------------------------------

Syn Verse Continued
e---------------------------|--------------------------------------
B---------------------------|--------------------------------------
G-7------7----------7------7|-7------7---5h6h7p6p5--7------7-------
D-7--5---7-xx-x-xx--7--5---7|-7--5---7-xx-----------7--5---7-xx----
A-5--3b--5-xx-x-xx--5--3b--5|-5--3b--5-xx-----------5--3b--5-xx-(s)
E---------------------------|--------------------------------------

Chorus
e---------------------
B---------------------
G---9~---7~--7/8-7-5--
D-x-9~-x-7~-----------
A-x-7~-x-5~-----------
E---7~---5~-----------

This song is much easier than I made it look. I just tabbed out every little detail, but make it simple if ya have to.
            
Hard to play? Try these video lessons and learn fast. | Correct




comments powered by Disqus
↑ Back to top | Tablatures and chords are parodies/interpretations of the original songs. You may use it for private study, scholarship, research or language learning purposes only