» » »

Zug Island, Suicide Tabs (ver.1)

Artists:  A B C D E F G H I J K L M N O P Q R S T U V W X Y Z # 

Suicide Tabs (ver.1)

Zug Island Tabs
 Rating:
4/5 (4 votes)
Suicide lessons Tabs too difficult? Try these video lessons and learn fast
                Record Label: Psychopathic Records
Distribution: Red Music Distribution

Instrument: 6-string guitar
Tuning: Standard

Key:
/ = Slide
h = Hammer-On 
^ = Bend String 

Intro:

-------------8/10-----------------------------------8/10---------------------
----6---------------------6-------6----------6------------------9-----8---6--
--8--8-----------------8------8-----------8---8------------8------8---------

Verse:

-------------------------------------------
-------------------------------------------
-------------------------------------------  x4 w/ Palm-Mute, then x4 w/out Palm-Mute
-------------------------------------------
----------------------------------6^------
---6h8--88----------6h8--88-------8---

Chorus:

-------------8/10-----------------------------------8/10---------------------
----6---------------------6-------6----------6------------------9-----8---6--
--8--8-----------------8------8-----------8---8------------8------8---------

-------------8/10-----------------------------------8/10---------------------
----6---------------------6-------6----------6--------------------------------
--8--8-----------------8------8-----------8---8------------------------------




Verse:

-------------------------------------------
-------------------------------------------
-------------------------------------------  x4 w/ Palm-Mute, then x4 w/out Palm-Mute
-------------------------------------------
----------------------------------6^------
---6h8--88----------6h8--88-------8---

Chorus:

-------------8/10-----------------------------------8/10---------------------
----6---------------------6-------6----------6------------------9-----8---6--
--8--8-----------------8------8-----------8---8------------8------8---------

-------------8/10-----------------------------------8/10---------------------
----6---------------------6-------6----------6------------------9-----8---6--
--8--8-----------------8------8-----------8---8------------8------8---------

Bridge:

---------------------------------------------------
---------------------------------------------------
---------------------------------------------------
---------------------------------------------------
---333333--6---5---4-------888888--11-----
---------------------------------------------------

---------------------------------------------------
---------------------------------------------------
---------------------------------------------------
---------------------------------------------------
---333333--6---5---4-------888888--11-10--
---------------------------------------------------






Chorus:

-------------8/10-----------------------------------8/10---------------------
----6---------------------6-------6----------6------------------9-----8---6--
--8--8-----------------8------8-----------8---8------------8------8---------

-------------8/10-----------------------------------8/10---------------------
----6---------------------6-------6----------6------------------9-----8---6--
--8--8-----------------8------8-----------8---8------------8------8---------

-------------8/10-----------------------------------8/10---------------------
----6---------------------6-------6----------6------------------9-----8---6--
--8--8-----------------8------8-----------8---8------------8------8---------

-------------8/10-----------------------------------8/10---------------------
----6---------------------6-------6----------6------------------9-----8---6--
--8--8-----------------8------8-----------8---8------------8------8---------

-------------8/10-----------------------------------8/10---------------------
----6---------------------6-------6----------6------------------9-----8---6--
--8--8-----------------8------8-----------8---8------------8------8---------

-------------8/10-----------------------------------8/10---------------------
----6---------------------6-------6----------6--------------------------------
--8--8-----------------8------8-----------8---8------------------------------
            
Submit corrections

comments powered by Disqus
↑ Back to top | Zug Island Tabs for Suicide. Lyrics for acoustic guitar and electric guitar. Tablatures and chords are parodies/interpretations of the original songs. You may use it for private study, scholarship, research or language learning purposes only