» » »

Zsk, Upside Down Bass tabs (ver.1)

Artists:  A B C D E F G H I J K L M N O P Q R S T U V W X Y Z # 

Upside Down Bass tabs (ver.1)

Zsk Tabs
 Rating:
4/5 (4 votes)
Upside Down lessons Tabs too difficult? Try these video lessons and learn fast
1
                Turn Your E-String into a D

Verses
G:-----------------|X8|----
D:-----------------|X8|----
A:---------1-1-----|X8|----
D:-5-5-1-1-----3-3-|X8|-5~-

1st Pre Chorus
G:-------------------------------------------------------------------------
D:-------------------------------------------------------------------------
A:-1-1-1-1-------------------------1-1-1-1---------------------------------
D:---------0-0-0-0-5-5-5-5-1-1-1-1---------3-3-3-3-3-3-3-3-4-4-4-4-4-4-4-4-

Chorus
G:------------------------------------------------------------------------------|X2
D:----------------------------------3-1-1---------------------------------------|X2
A:----------------------1-1-------1---------------------------1-1--------1~--0~-|X2
D:-5-5-------1-1--------------------------5-5-------1-1-------------------------|X2

Instrumental Part
G:------------------------------------------------
D:------------------------------------------------
A:------------------------------------------------
D:-12-12-12-12-12-12-12-12-12-12-12-12-12-12-12/0-

2nd Pre Chorus
G:--------------------------------|---------------------------------|X2|-----------------------------------------
D:--------------------------------|---------------------------------|X2|-----------------------------------------
A:-1-1-1-1------------------------|-1-1-1-1-------------------------|X2|-1-1-1-1---------------------------------
D:---------0-0-0-0-5-5-5-5-1-1-1-1|---------3-3-3-3-5-5-5-5-1-1-1-1-|X2|---------3-3-3-3-3-3-3-3-4-4-4-4-4-4-4-4-

Outro
G:---------------------------------------------------------------------------------------------------------------------------------
D:---------------------------------------------------------------------------------------------------------------------------------
A:---------------------------------1-1-1-1-1-1-1-1-1-1-1-1-1-1-1-1---------------------------------1-1-1-1-1-1-1-1-0-0-0-0-0-0-0-0-
D:-5-5-5-5-5-5-5-5-1-1-1-1-1-1-1-1---------------------------------5-5-5-5-5-5-5-5-1-1-1-1-1-1-1-1---------------------------------

G:---------------------------------|X2|---
D:---------------------------------|X2|---
A:---------------------------------|X2|---
D:-5-5-5-5-5-5-5-5-1-1-1-1-1-1-1-1-|X2|-5-
            
Submit corrections

comments powered by Disqus
↑ Back to top | Zsk Bass for Upside Down. Lyrics for acoustic guitar and electric guitar. 1 Tablatures and chords are parodies/interpretations of the original songs. You may use it for private study, scholarship, research or language learning purposes only