» » »

Zsk, Riot Radio Bass tabs (ver.1)

Artists:  A B C D E F G H I J K L M N O P Q R S T U V W X Y Z # 

Riot Radio Bass tabs (ver.1)

Zsk Tabs
 Rating:
4/5 (4 votes)
Riot Radio lessons Tabs too difficult? Try these video lessons and learn fast
                Turn Your E-String into a D

Intro
G:--------------------------------|X2|
D:--------------------------------|X2|
A:-----------------1-1-1-1--------|X2|
D:-0-0-0-0-0-0-0-0--------3-3-3-3-|X2|

1st Verse
G:---------------------------------------------------------|--------------------------------|X2|-------------------------
D:-------------------------0-0-0-0-0-0-0-0-----------------|--------------------------------|X2|-----------------0-------
A:-5---------1-1-1-------------------------1-1-1-1---------|--------1-1-1-1---------0-0-0-0-|X2|-0-0-0-0-0-0-0-0---3-0---
D:-----------------3--5--3-------------------------3--5--3-|0-0-0-0---------3-3-3-3---------|X2|-----------------------3-

G:---------7-------------------------------------------------------|--------------------------------|X2
D:-0-0-0-0---0-0-0-----------------0-0-0-0-0-0-0-0-----------------|--------------------------------|X2
A:-----------------1-1-1-1-------------------------1-1-1-1---------|--------1-1-1-1---------0-0-0-0-|X2
D:-------------------------3--5--3-------------------------3--5--3-|0-0-0-0---------3-3-3-3---------|X2

Pre Chorus
G:-----------------------------------------------------------------|X2
D:-----------------------------------------------------------------|X2
A:-3-3-3-3-3-3-3-3-------------------------------------------------|X2
D:-----------------5-5-5-5-5-5-5-5-0-0-0-0-0-0-0-0-0-0-0-0-3-3-3-3-|X2

1st Chorus
G:-----------------------------------------------------------------|X2
D:-----------------0-0-0-0-0-0-0-0-2-2-2-2-2-2-2-2-3-3-3-3-5-5-5-5-|X2
A:-3-3-3-3-3-3-3-3-------------------------------------------------|X2
D:-----------------------------------------------------------------|X2

2nd Verse
G:-------------------------------------------------------------------------------------------------------------------------
D:-------------------------0-0-0-0-0-0-0-0-----------------0-0-0-0---------------------------------------------------------
A:-----------1-1-1-------------------------1-1-1-1-----------------1-1-1-1---------0-0-0-0---------1-1-1-1---------0-0-0-0-
D:-----------------3--5--3-------------------------3--5--3-----------------3-3-3-3---------0-0-0-0---------3-3-3-3---------

Bridge
G:----------------------|X4|------------------------------------------------
D:----------------------|X4|------------------------------------------------
A:-3-3-3------3-------1-|X4|-3~---------------------------------------------
D:--------------1---1---|X4|------5~---0~---0-0-0-0-0-0-0-0-3-3-3-3-3-3-3-3-

2nd chorus + 3rd Chorus
G:-----------------------------------------------------------------|X2
D:-----------------------------------------------------------------|X2
A:-3-3-3-3-3-3-3-3-------------------------------------------------|X2
D:-----------------5-5-5-5-5-5-5-5-0-0-0-0-0-0-0-0-0-0-0-0-3-3-3-3-|X2

G:-----------------------------------------------------------------|X2|-----
D:-----------------0-0-0-0-0-0-0-0-2-2-2-2-2-2-2-2-3-3-3-3-5-5-5-5-|X2|-/10-
A:-3-3-3-3-3-3-3-3-------------------------------------------------|X2|-----
D:-----------------------------------------------------------------|X2|-----
            
Submit corrections

comments powered by Disqus
↑ Back to top | Zsk Bass for Riot Radio. Lyrics for acoustic guitar and electric guitar. Tablatures and chords are parodies/interpretations of the original songs. You may use it for private study, scholarship, research or language learning purposes only