» » »

Zsk, My World Bass tabs (ver.1)

Artists:  A B C D E F G H I J K L M N O P Q R S T U V W X Y Z # 

My World Bass tabs (ver.1)

Zsk Tabs
 Rating:
4/5 (4 votes)
My World lessons Tabs too difficult? Try these video lessons and learn fast
                Intro
G:---------------------------------------------------------------------
D:---------------------------------------------------------------------
A:-2~------------------------------------------------------------------
E:-----------------0~--------------4~--------------2-2-2-2/14-14-14-14-

G:-----------------------------------------------------------------
D:-----------------------------------------------------------------
A:-2-2-2-2-2-2-2-2-------------------------------------------------
E:-----------------0-0-0-0-0-0-0-0-4-4-4-4-4-4-4-4-2-2-2-2-2-2-2-2-

1st and 2nd Verses
G:---------------------------------------------------------------------
D:---------------------------------------------------------------------
A:-2-2-----------------------------------------------------------------
E:-----------------0-0-------------4-4-------------2-2-2-2/14-14-14-14-

G:-----------------------------------------------------------------
D:-----------------------------------------------------------------
A:-2-2-2-2-2-2-2-2-------------------------------------------------
E:-----------------0-0-0-0-0-0-0-0-4-4-4-4-4-4-4-4-2-2-2-2-2-2-2-2-

G:-----------------------------------------------------------------
D:-----------------------------------------------------------------
A:---------------------------------2-2-2-2-2-2-2-2-----------------
E:-4-4-4-4-4-4-4-4-0-0-0-0-0-0-0-0-----------------4-4-4-4-0-0-0-0-

Chorus & Instrumental Part After The Second Chorus
G:---------------------------------|X2
D:---------------------------------|X2
A:-2-2-2-2-------------------------|X2
E:---------0-0-0-0-4-4-4-4-2-2-2-2-|X2

Bridge
G:---------------------------------|--------------------------------|X3
D:---------------------------------|--------------------------------|X3
A:-2-------------------------------|22222---------------------------|X3
E:---------------------------------|--------00000---44444---22222---|X3

3rd Verse
G:---------------------------------------------------------------------
D:---------------------------------------------------------------------
A:-2-2-----------------------------------------------------------------
E:-----------------0-0-------------4-4-------------2-2-2-2/14-14-14-14-

G:---------------------------------------------------------------------
D:---------------------------------------------------------------------
A:-2-2-2-2-2-2-2-2-----------------------------------------------------
E:-----------------0-0-0-0-0-0-0-0-4-4-4-4-4-4-4-4-2-2-2-2/14-14-14-14-

G:-----------------------------------------------------------------
D:-----------------------------------------------------------------
A:-2-2-2-2-2-2-2-2-------------------------------------------------
E:-----------------0-0-0-0-0-0-0-0-4-4-4-4-4-4-4-4-2-2-2-2-2-2-2-2-

G:-----------------------------------------------------------------
D:-----------------------------------------------------------------
A:---------------------------------2-2-2-2-2-2-2-2-----------------
E:-4-4-4-4-4-4-4-4-0-0-0-0-0-0-0-0-----------------4-4-4-4-0-0-0-0-

4th Verse
G:-----------------------------------------------------------------|X2
D:-----------------------------------------------------------------|X2
A:-------------------------------------------------2-2-2-2---------|X2
E:-0-0-0-0-0-0-0-0-4-4-4-4-4-4-4-4-0-0-0-0-0-0-0-0---------2-2-2-2-|X2

End Of The Chorus Without Bass
G:-----------------------------------------------------------------
D:-----------------------------------------------------------------
A:----------------------------------------------------------3/15/3-
E:-----------------------------------------------------------------

Last Chorus
G:---------------------------------|X4
D:---------------------------------|X4
A:-3-3-3-3---------0-0-0-0---------|X4
E:---------1-1-1-1---------3-3-3-3-|X4

Outro
G:---------------------------------|X2|----------------------------
D:---------0-0-0-0-2-2-2-2-3-3-5-3-|X2|-/10-------------10-10-10/0-
A:-3-3-3-3-------------------------|X2|----------------------------
E:---------------------------------|X2|----------------------------
            
Submit corrections

comments powered by Disqus
↑ Back to top | Zsk Bass for My World. Lyrics for acoustic guitar and electric guitar. Tablatures and chords are parodies/interpretations of the original songs. You may use it for private study, scholarship, research or language learning purposes only