» » »

Kuesst Die Faschisten Tabs (ver.1)

Artists:  A B C D E F G H I J K L M N O P Q R S T U V W X Y Z # 

Kuesst Die Faschisten Tabs (ver.1)

Zsk
Rating:
3/5 (3 votes)

Hard to play? Try these video lessons and learn fast.
                x2 INTRO
e-0-0-0-0-1-1-1----------------------------------------------------------------------|
B-0-0-0-0-1-1-1----------------------------------------------------------------------|
G-------------------------5-5-5-5--2-2-2-2--3-3-3-3----------------------------------|
D----------------3-3-3-3--5-5-5-5--2-2-2-2--3-3-3-3-x-x-3-x-x-3-x-x-3-x-x-3----------|
A----------------3-3-3-3--3-3-3-3--0-0-0-0--1-1-1-1-x-x-3-x-x-3-x-x-3-x-x-3----------|
E----------------1-1-1-1----------------------------x-x-1-x-x-1-x-x-1-x-x-1----------|


VERSE
e------------------------------------------------------------------------------|
B------------------------------------------------------------------------------|
G-5--2-----5--2-----5-5-5---------2-2-2-------------------------------------5--|
D-5--2--3--5--2--3--5-5-5--5-5-5--2-2-2--2-2-2--3-3-3--2-2-2--3-3-3--5-5-5--5--|
A-3--0--3--3--0--3--3-3-3--5-5-5--0-0-0--2-2-2--3-3-3--2-2-2--3-3-3--5-5-5--3--|
E-------1--------1---------3-3-3---------0-0-0--1-1-1--0-0-0--1-1-1--3-3-3-----|


REFRAIN
e-----------------------------------------------------------------------------------------------------|
B-----------------------------------------------------------------------------------------------------|
G-5-5-5---------------2-2-2-2-2-2---------------5-5-5-5-5-5---------------2-2-2-2-2-2-----------------|
D-5-5-5--5-5-5-5-5-5--2-2-2-2-2-2--2-2-2-3-3-3--5-5-5-5-5-5--5-5-5-5-5-5--2-2-2-2-2-2--3-3-3-5-5-5----|
A-3-3-3--5-5-5-5-5-5--0-0-0-0-0-0--2-2-2-3-3-3--3-3-3-3-3-3--5-5-5-5-5-5--0-0-0-0-0-0--3-3-3-5-5-5----|
E--------3-3-3-3-3-3---------------0-0-0-1-1-1---------------3-3-3-3-3-3---------------1-1-1-3-3-3----|


BRIDGE
e-----------------------------------------|
B-----------------------------------------|
G-5-5-5---5-----------2-2-2---2-----------|
D-5-5-5---5-5-5-5---5-2-2-2---2-3-3-3---3-|
A-3-3-3---3-5-5-5---5-0-0-0---0-3-3-3---3-|
E-----------3-3-3---3-----------1-1-1---1-|
...................PM...................x2


VERSE
e------------------------------------------------------------------------------|
B------------------------------------------------------------------------------|
G-5--2-----5--2-----5-5-5---------2-2-2-------------------------------------5--|
D-5--2--3--5--2--3--5-5-5--5-5-5--2-2-2--2-2-2--3-3-3--2-2-2--3-3-3--5-5-5--5--|
A-3--0--3--3--0--3--3-3-3--5-5-5--0-0-0--2-2-2--3-3-3--2-2-2--3-3-3--5-5-5--3--|
E-------1--------1---------3-3-3---------0-0-0--1-1-1--0-0-0--1-1-1--3-3-3-----|


REFRAIN
e-----------------------------------------------------------------------------------------------------|
B-----------------------------------------------------------------------------------------------------|
G-5-5-5---------------2-2-2-2-2-2---------------5-5-5-5-5-5---------------2-2-2-2-2-2-----------------|
D-5-5-5--5-5-5-5-5-5--2-2-2-2-2-2--2-2-2-3-3-3--5-5-5-5-5-5--5-5-5-5-5-5--2-2-2-2-2-2--3-3-3-5-5-5----|
A-3-3-3--5-5-5-5-5-5--0-0-0-0-0-0--2-2-2-3-3-3--3-3-3-3-3-3--5-5-5-5-5-5--0-0-0-0-0-0--3-3-3-5-5-5----|
E--------3-3-3-3-3-3---------------0-0-0-1-1-1---------------3-3-3-3-3-3---------------1-1-1-3-3-3----|


BRIDGE
e-----------------------------------------|
B-----------------------------------------|
G-5-5-5---5-----------2-2-2---2-----------|
D-5-5-5---5-5-5-5---5-2-2-2---2-3-3-3---3-|
A-3-3-3---3-5-5-5---5-0-0-0---0-3-3-3---3-|
E-----------3-3-3---3-----------1-1-1---1-|
...................PM...................x2


VERSE
e---------------------------------------------------------------------------------------------------------------|
B---------------------------------------------------------------------------------------------------------------|
G--5-5--5--------2-2--2--------5-5--5--------2-2--2------5-5--5-7-7--7-9-9--9-10-10--5-5--5-7-7--7-9-9--9-10-10-|
D--5-5--5-5-5--5-2-2--2-3-3----5-5--5-5-5--5-2-2--2-3-3--5-5--5-7-7--5-9-9--7-10-10--5-5--5-7-7--7-9-9--9-10-10-|
A--3-5--3-5-5--5-0-0--0-1-1----3-5--3-5-5--5-0-0--0-1-1--3-5--3-5-5--5-7-7--7-8--8---3-5--3-5-5--5-7-7--7-8--8--|
E---------3-3--3--------1-1-----------3-3--3--------1-1---------------------------------------------------------|
.........PM.........................................................................


BRIDGE
e--------------------------------------------------------------|
B--------------------|-----------------------------------------|
G--5---2----5-7-9-10-|-----------------------------------5-5---|
D--5-5-2-3--5-7-9-10-|-3-3-3-3-3-3-3-3--5-5-5-5-5-5-5-5--5-5---|
A--3-5-0-3--3-5-7-8--|-3-3-3-3-3-3-3-3--5-5-5-5-5-5-5-5--3-3---|
E----3---1-----------|-1-1-1-1-1-1-1-1--3-3-3-3-3-3-3-3--------|

BRIDGE
e-----------------------------------------------------------------------------------------------------------------|
B-----------------------------------------------------------------------------------------------------------------|
G----------------------------------------------5-5-5-5-5-5-5-5----------------------------------------------------|
D-5-5-5-5-5-5--7-7-7-7-7-7-7-5--3-x-x--3-x-x---5-5-5-5-5-5-5-5----5-5-5-5-5-5-5-5--7-7-7-7-7-7-7-5--3-x-x-3-x-x---|
A-5-5-5-5-5-5--7-7-7-7-7-7-7-5--3-x-x--3-x-x---3-3-3-3-3-3-3-3----5-5-5-5-5-5-5-5--7-7-7-7-7-7-7-5--3-x-x-3-x-x---|
E-3-3-3-3-3-3--5-5-5-5-5-5-5-3--1-x-x--1-x-x----------------------3-3-3-3-3-3-3-3--5-5-5-5-5-5-5-3--1-x-x-1-x-x---|

BRIDGE
e------------------------------------------------------------------|
B------------------------------------------------------------------|
G-5-5-5-5-7-7-7-7-9-9-9-9-9-9-1010-5-5-5-5-7-7-7-7-9-9-9-9-----5-5-|
D-5-5-5-5-7-7-7-7-9-9-9-9-9-9-1010-5-5-5-5-7-7-7-7-9-9-9-9-9-9-5-5-|
A-3-3-3-3-5-5-5-5-7-7-7-7-7-7-8-8--3-3-3-3-5-5-5-5-7-7-7-7-9-9-3-3-|
E----------------------------------------------------------7-7-----|
................................PM...............................x2.

REFRAIN
e-----------------------------------------------------------------------------------------------------|
B-----------------------------------------------------------------------------------------------------|
G-5-5-5---------------2-2-2-2-2-2---------------5-5-5-5-5-5---------------2-2-2-2-2-2-----------------|
D-5-5-5--5-5-5-5-5-5--2-2-2-2-2-2--2-2-2-3-3-3--5-5-5-5-5-5--5-5-5-5-5-5--2-2-2-2-2-2--3-3-3-5-5-5----|
A-3-3-3--5-5-5-5-5-5--0-0-0-0-0-0--2-2-2-3-3-3--3-3-3-3-3-3--5-5-5-5-5-5--0-0-0-0-0-0--3-3-3-5-5-5----|
E--------3-3-3-3-3-3---------------0-0-0-1-1-1---------------3-3-3-3-3-3---------------1-1-1-3-3-3----|

OUTRO
e------------------------------------------------|
B------------------------------------------------|
G-5-5-5---5----------2-2-2--2---------5--2-2--5--|
D-5-5-5---5-5-5-5--5-2-2-2--2---------5--2-2--5--|
A-3-3-3---3-5-5-5--5-0-0-0--0-3-3-3---3--0-0--3--|
E-----------3-3-3--3----------1-1-1--------------|
				      "Kein Fussbreit den Faschisten!"
            
Hard to play? Try these video lessons and learn fast. | Correct




comments powered by Disqus
↑ Back to top | Tablatures and chords are parodies/interpretations of the original songs. You may use it for private study, scholarship, research or language learning purposes only