>
 >
 >
KüSst Die Faschisten

KüSst Die Faschisten Bass Tabs

Zsk - KüSst Die Faschisten chords, tabs, tablatures, lyrics

Guitar lessons | Add/correct | Request | Top 50 tabs Artists:  A B C D E F G H I J K L M N O P Q R S T U V W X Y Z 0-9

KüSst Die Faschisten Bass Tabs – Zsk

CD, Sheet music, Poster

Do you like KüSst Die Faschisten? Share with your friends now
Bass Tabs
Intro
G:---------------------------------------------------------|X2
D:---------------------------------------------------------|X2
A:----------------3-3-3-3-3-0-0-0-01-1-1-1-----------------|X2
E:---------1-1-1-1-------------------------111-111-111-111-|X2

1st Verse
G:---------------------------------|X2|-----------------------------------------------------------------
D:---------------------------------|X2|-----------------------------------------------------------------
A:-3-3-3-3-3-3-3-3-0-0-0-0---------|X2|-3-3-3-3---------0-0-0-0-----------------------------------------
E:-------------------------1-1-1-1-|X2|---------3-3-3-3---------0-0-0-0-1-1-1-1-0-0-0-0-1-1-1-1-3-3-3-3-

Chorus
G:-----------------------------------------------------------------|X2
D:-----------------------------------------------------------------|X2
A:-3-3-3-3-3-3-3-3-----------------0-0-0-0-0-0-0-0-----------------|X2
E:-----------------3-3-3-3-3-3-3-3-----------------0-0-0-0-1-1-1-1-|X2

Instrumental Parts
G:-------------------------|X2
D:-------------------------|X2
A:-333-3-------000-0-------|X2
E:-------333-3-------111-1-|X2

2nd Verse
G:-----------------------------------------------------------------
D:-------------------------------------------------2-2-2-2-3-3-3-3-
A:-3-3-3-3-3-3-3-3-0-0-0-0---------3-3-3-3-3-3-3-3-----------------
E:-------------------------1-1-1-1---------------------------------

G:-----------------------------------------------------------------
D:-----------------------------------------------------------------
A:-3-3-3-3---------0-0-0-0-----------------------------------------
E:---------3-3-3-3---------0-0-0-0-1-1-1-1-0-0-0-0-1-1-1-1-3-3-3-3-

3rd Verse
G:-------------------------|X2|---------------------------------------------------
D:-------------------------|X2|-------000-0-222-2-333-3-------000-0-222-2-3-3-5-3-
A:-333-3-------000-0-------|X2|-333-3-------------------333-3---------------------
E:-------333-3-------111-1-|X2|---------------------------------------------------

Bridge
G:-----------------------------------------------------------------------------------------------------------------------
D:---------------------------------------------------0~--------2~--------3~----------------------------------------------
A:-3~-------------------0~-----------------3~-----------------------------------------------------------------------3--3-
E:------------3~-----------------1~-------------------------------------------------0-0-0-0-0-0-0-0-1-1-1-1-1-1-1-1------

G:-----------------------------------------------------------------------------------------------------------------
D:-----------------------------------------------------------------------------------------------------------------
A:-----------------0-0-0-0-0-0-0-0-----------------3-3-3-3-3-3-3-3-----------------0-0-0-0-0-0-0-0-----------------
E:-3-3-3-3-3-3-3-3-----------------1-1-1-1-1-1-1-1-----------------3-3-3-3-3-3-3-3-----------------1-1-1-1-1-1-1-1-

G:----------------------------------|X4
D:---------0-0-0-0-2-2-2-2-3-3-5-3--|X4
A:-3-3-3-3--------------------------|X4
E:----------------------------------|X4

Outro
G:---------------------------------------
D:-------------------------------------5-
A:-333~3-------000~0-------3----0-0----3-
E:-------333~3-------111~1---------------
(the last note is on 2 strings)





Comments


Popular Zsk tabs & chords
Alienation Bass Tabs
My World Bass Tabs
Riot Radio Bass Tabs
Jede Sekunde Chords
Und Genau Da Gehen Unsere Wege Auseinander Chords
Und Genau Da Gehen Unsere Wege Auseinander 1 Chords
Wenn So Viele Schweigen Chords
Kuesst Die Faschisten Tabs
Und Genau Da Gehen Unsere Wege Auseinander Ukulele
Wenn So Viele Schweigen Ukulele


Song lyrics



↑ Back to top | Tablatures and chords are parodies/interpretations of the original songs. You may use it for private study, scholarship, research or language learning purposes only
© 2014 AZChords.com Contact us | Privacy policy | DMCA | Add/correct tabs | Request tabs | Top 50 tabs