» » »

Zsk, Alienation Bass tabs (ver.1)

Artists:  A B C D E F G H I J K L M N O P Q R S T U V W X Y Z # 

Alienation Bass tabs (ver.1)

Zsk Tabs
 Rating:
4/5 (4 votes)
Alienation lessons Tabs too difficult? Try these video lessons and learn fast
                Turn Your E-String into a D

1st Verse
G:-----------------------------------------------------------------
D:---------------------------------5~------------------------------
A:-----------------------------------------------------------------
D:-----------------------------------------------------------------

G:-----------------------------------------------------------------
D:-----------------------------------------------------------------
A:---------------------------------0-0-0-0-0-0-0-0-3-3-3-3-3-3-3-3-
D:-----------------------------------------------------------------

G:-----------------------------------------------------------------
D:-----------------------------------------------------------------
A:-----------------------------------------------------------------
D:-5-5-5-5-5-5-5-5-0-0-0-0-2-2-2-2-5-5-5-5-5-5-5-5-0-0-0-0-2-2-2-2-

G:-----------------------------------------------------------------
D:-----------------------------------------------------------------
A:---------------------------------0-0-0-0-0-0-0-0-3-3-3-3-3-3-3-3-
D:-5-5-5-5-5-5-5-5-0-0-0-0-2-2-2-2---------------------------------

Pre Chorus
G:---------------------------------
D:---------------------------------
A:---------------------------------
D:-2-2-2-2-2-2-2-2-5-5-5-5-5-5-5-5-

1st Chorus
G:-------------------------------------------------------------------------------------------------------------------
D:-------------------------------------------------------------------------------------------------------------------
A:-3-3-3-3-3-3-3-3-0-0-0-0-0-0-0-0---------------------------------3-3-3-3---------0-0-0-0---------3-3-3-3-3-3-3-3-3-
D:---------------------------------2-2-2-2-2-2-2-2-3-3-3-3-3-3-3-3---------5-5-5-5---------3-3-3-3-------------------

2nd Verse
G:-----------------------------------------------------------------
D:-----------------------------------------------------------------
A:-----------------------------------------------------------------
D:-5-5-5-5-5-5-5-5-0-0-0-0-2-2-2-2-5-5-5-5-5-5-5-5-0-0-0-0-2-2-2-2-

G:-----------------------------------------------------------------
D:-----------------------------------------------------------------
A:---------------------------------0-0-0-0-0-0-0-0-3-3-3-3-3-3-3-3-
D:-5-5-5-5-5-5-5-5-0-0-0-0-2-2-2-2---------------------------------

G:-----------------------------------------------------------------
D:-----------------------------------------------------------------
A:-----------------------------------------------------------------
D:-5-5-5-5-5-5-5-5-0-0-0-0-2-2-2-2-5-5-5-5-5-5-5-5-0-0-0-0-2-2-2-2-

G:-----------------------------------------------------------------
D:-----------------------------------------------------------------
A:---------------------------------0-0-0-0-0-0-0-0-3-3-3-3-3-3-3-3-
D:-5-5-5-5-5-5-5-5-0-0-0-0-2-2-2-2---------------------------------

2nd Chorus
G:-------------------------------------------------------------------------------------------------|X2
D:-------------------------------------------------------------------------------------------------|X2
A:-3-3-3-3-3-3-3-3-0-0-0-0-0-0-0-0---------------------------------3-3-3-3---------0-0-0-0---------|X2
D:---------------------------------2-2-2-2-2-2-2-2-3-3-3-3-3-3-3-3---------5-5-5-5---------3-3-3-3-|X2

Bridge
G:-----------------------------------------------------------------
D:---------------------------------10h12p10~-----------/0----------
A:-----------------------------------------------------------------
D:-----------------------------------------------------------------

G:---------------------------------|----------------------------------|X2|---------------------------------|X4
D:---------------------------------|----------------------------------|X2|---------------------------------|X4
A:-3-3-3-----------0-0-0-----------|-33-3-3----------00-0-0-----------|X2|-3-3-3-3---------0-0-0-0---------|X4
D:---------2-2-2-2---------5-5-5-5-|---------2-2-2-2----------5-5-5-5-|X2|---------2-2-2-2---------5-5-5-5-|X4

G:-----------------------------------------------------------------|X2
D:-------------------------------------------------2~------3~------|X2
A:-3~--------------0~--------------3~------------------------------|X2
D:-------------------------3~--------------------------------------|X2

3rd Verse
G:-----------------------------------------------------------------
D:-----------------------------------------------------------------
A:-----------------------------------------------------------------
D:-5~--------------------------------------------------------------

G:-----------------------------------------------------------------
D:-----------------------------------------------------------------
A:---------------------------------0-0-0-0-0-0-0-0-3-3-3-3-3-3-3-3-
D:-----------------------------------------------------------------

G:-----------------------------------------------------------------
D:-----------------------------------------------------------------
A:-----------------------------------------------------------------
D:-5-5-5-5-5-5-5-5-0-0-0-0-2-2-2-2-5-5-5-5-5-5-5-5-0-0-0-0-2-2-2-2-

G:-----------------------------------------------------------------
D:-----------------------------------------------------------------
A:---------------------------------0-0-0-0-0-0-0-0-3-3-3-3-3-3-3-3-
D:-5-5-5-5-5-5-5-5-0-0-0-0-2-2-2-2---------------------------------

Last Chorus
G:----------------------------------------------------------------|--------------------------------|X3
D:----------------------------------------------------------------|--------------------------------|X3
A:-3-3-3-3-3-3-3-3-0-0-0-0-0-0-0-0--------------------------------|3-3-3-3---------0-0-0-0---------|X3
D:---------------------------------2-2-2-2-2-2-2-2-3-3-3-3-3-3-3-3|--------5-5-5-5---------3-3-3-3-|X3

G:---------------------------------|X3|---
D:---------0-0-0-0-2-2-2-2-3-3-3-3-|X3|---
A:-3-3-3-3-------------------------|X3|-3-
D:---------------------------------|X3|---
            
Submit corrections

comments powered by Disqus
↑ Back to top | Zsk Bass for Alienation. Lyrics for acoustic guitar and electric guitar. Tablatures and chords are parodies/interpretations of the original songs. You may use it for private study, scholarship, research or language learning purposes only