» » »

Spades Tabs (ver.1)

Artists:  A B C D E F G H I J K L M N O P Q R S T U V W X Y Z # 

Spades Tabs (ver.1)

Zox
Rating:
0/5 (0 votes)

Hard to play? Try these video lessons and learn fast.
                
* I didn't get all of it but i got some of it. I will try to update it soon.
* Please Comment and rate. Tell me if i messed up. 
Tuning: Normal

Intro:
                                                          x3
e|---------------------------------------------------------|
B|---------------------------------------------------------|
G|-2---4-5-7-9---2---4-5-7-9---12-10p9h10-9p7h9---9-7-5-4--| 
D|---------------------------------------------------------|
A|---------------------------------------------------------|
E|---------------------------------------------------------|

e|------------------------------------------------------------------------|
B|------------------------------------------------------------------------|
G|-2---4-5-7-9---2---4-5-7-9---12-14-15-17-19-21-21-21-21-21-21-21-21b22--| 
D|------------------------------------------------------------------------|
A|------------------------------------------------------------------------|
E|------------------------------------------------------------------------|

Chorus:
e|------------------------------------------------------------------------|
B|------------------------------------------------------------------------|
G|------------------------------------------------------------------------| 
D|------------------------------------------------------------------------|
A|-0-2-3-5-0-2-3-5-0-0-3-5-2-0-3-5-2-0-2-3-5-0-2-3-5-7\5\3-7\5\3-0-3-5-2--|
E|------------------------------------------------------------------------|

   H H H H
e|----------|
B|----------|
G|----------| 
D|----------|
A|-0-3-5-2--|
E|----------|

Bridge: = Intro except you play the 1st line 1 time instead of 3

Tablature Legend
---------------
 /  slide up
 \  slide down
 h  hammer-on
 p  pull-off
 b  bend

Duration Legend
---------------
W - whole
H - half
Q - quarter
E - 8th
S - 16th
T - 32nd
X - 64th
            
Hard to play? Try these video lessons and learn fast. | Correct




comments powered by Disqus
↑ Back to top | Tablatures and chords are parodies/interpretations of the original songs. You may use it for private study, scholarship, research or language learning purposes only