» » »

Line In The Sand Tabs (ver.1)

Artists:  A B C D E F G H I J K L M N O P Q R S T U V W X Y Z # 

Line In The Sand Tabs (ver.1)

Zox
Rating:
5/5 (2 votes)

Tabs too difficult? Try these video lessons and learn fast.
                ZOX
Line In The Sand from the album Line In The Sand
sweet song, here's the tab:

Main Riff:
e|-----------------------|------------------------|------------------------|--------------------|
B|-----------------------|------------------------|------------------------|--------------------|
G|-----------------------|------------------------|------------------------|----------0---------|
D|-------------0---------|-1--1-1-0-----0---------|------------0-----------|--------3---3-0-----|
A|-----------1---3-1-----|----------3-3---3-1-----|----------1---3-1-----1-|----------------3-1-|
E|--3--3-3-1---------3-1-|--------------------3-1-|-3--3-3-1---------1h3---|-1--1-1-------------|

Bridge:
e|---3-3---3-3---3-3---1-1-|--3-3---3-3---5-5---5-5--|
B|---4-4---4-4---3-3---1-1-|--4-4---4-4---8-8---7-7--|
G|---5-5---5-5---3-3---2-2-|--5-5---5-5---7-7---7-7--|
D|---5-5---5-5---5-5---3-3-|--5-5---5-5---7-7---7-7--|
A|-------------------------|-------------------------|
E|-------------------------|-------------------------|

Chorus:
e|---------------------------------------------------------------------------|
B|---------------------------------------------------------------------------|
G|---8-8-8-8-8-8-8-8---------------------------------------------------------|
D|---8-8-8-8-8-8-8-8-10-10-10-10-10-10-10-10-8-8-8-8-8-8-8-8-5-5-5-5-5-5-5-5-|  x3
A|---6-6-6-6-6-6-6-6-7--7--7--7--7--7--7--7--8-8-8-8-8-8-8-8-5-5-5-5-5-5-5-5-|
E|-------------------------------------------6-6-6-6-6-6-6-6-3-3-3-3-3-3-3-3-|

e|----------------------------------------------|
B|----------------------------------------------|
G|---8-8-8-8-8-8-8-8----------------------------|
D|---8-8-8-8-8-8-8-8-10-10-10-10-10-10-10-10-5--|
A|---6-6-6-6-6-6-6-6-7--7--7--7--7--7--7--7--5--|
E|-------------------------------------------3--|

Other Riff:
e|------------------------------|-----------------------------|
B|------------------------------|-----------------------------|
G|------------------------3-2---|----------------------3-2----|
D|----5-3---------------------0-|---5-3------------3-5-----0--|
A|--------5-3---3-5-----5-------|-------5-3----3-5------------|
E|--3---------6-----3-----------|-3----------6----------------|

Breakdown:
e|--5-----8-----|                  |-6-------10-------|
B|----6-----6---|                  |---6---6----6---6-|
G|------7-----7-|                  |-----7--------7---|
D|--------------| repeat x4, then  |------------------|  x4
A|--------------|                  |------------------|
E|--------------|                  |------------------|

e|--5-----8-----|      |-8-8-8-8-8b10-8b10-8b10-8b10--|
B|----6-----6---|      |------------------------------|
G|------7-----7-|      |------------------------------|
D|--------------| x4   |------------------------------|
A|--------------|      |------------------------------|
E|--------------|      |------------------------------|

That's it.
            
Tabs too difficult? Try these video lessons and learn fast.




comments powered by Disqus
↑ Back to top | Tablatures and chords are parodies/interpretations of the original songs. You may use it for private study, scholarship, research or language learning purposes only