» » »

Fallen Tabs (ver.1)

Artists:  A B C D E F G H I J K L M N O P Q R S T U V W X Y Z # 

Fallen Tabs (ver.1)

Zox
Rating:
0/5 (0 votes)
Tabs too difficult? Try these video lessons and learn fast.
                
Tuning: Standard
* I will finish it tommorrow

Top Part is Guitar, lower part is bass when the scores are connected.

e|-------13-10--15-13-10-18b20-16-15--8-10------|
b|-13-10----------------------------------------|
g|----------------------------------------------|
d|----------------------------------------------|
a|----------------------------------------------|
E|----------------------------------------------|

e|--------------------------------------0-1-0-1-|
b|----------------------------------------------|
g|----------------------------------------------|
d|----------------------------------------------|
a|----------------------------------------------|
E|----------------------------------------------|


e|---------------------------------------------5-|
b|---------------------------------------------6-|
g|---------------------------------------------7-|
d|---------------------------------------------7-|
a|---------------------------------------------0-|
E|-----------------------------------------------|
 |
 |
e|----------------------------------------------|
b|----------------------------------------------|
g|----------------------------------------------|
d|-------------------------------0h7/8\7/8\7----|
a|-5---------------5p0-----------0h7/8\7/8\7----|
E|---5-6-3-6-3-1-5-----5-6-1-6-5----------------|

e|-5--------------------------------------------|
b|-6-------6------3-------5---------------------|
g|-7-------7------3-------6---------------------|
d|-7-------8------5-------7---------------------|
a|---------8------5-------7---------------------|
E|----------------------------------------------|
 |
 |
e|----------------------------------------------|
b|----------------------------------------------|
g|----------------------------------------------|
d|-------------------------------0h7/8\7/8\7----|
a|-5---------------5\0--------------------------|
E|---5-6-3-6-3-1-5-----5-6-1-6-5----------------|

| /  slide up
| \  slide down
| h  hammer-on
| p  pull-off
| ~  vibrato
| +  harmonic
| x  Mute note
            
Tabs too difficult? Try these video lessons and learn fast.


comments powered by Disqus
↑ Back to top | Tablatures and chords are parodies/interpretations of the original songs. You may use it for private study, scholarship, research or language learning purposes only