>
 >
 >
Canon

Canon Guitar Tabs

Zox - Canon chords, tabs, tablatures, lyrics

Guitar lessons | Add/correct | Request | Top 50 tabs Artists:  A B C D E F G H I J K L M N O P Q R S T U V W X Y Z 0-9

Canon Guitar Tabs – Zox

CD, Sheet music, Poster

Do you like Canon? Share with your friends now
Tabs
Tuning: Standard Tuning for 4-Stringed Violin (G, D, A, E)
Key: D major--play all F# and C#


Intro [Pizzacato]:
E|-------------------------------------------------1-3--1-3-4-3-1-0-----2-1--|
A|----------0--3-2-3--2-1-0-1-2-0-1-2-3-2-1-2-3-2-3-----------------3-2------|
D|-0--2-3--------------------------------------------------------------------|
G|---------------------------------------------------------------------------|

E|-0-------------------------------------------------------------------------|
A|---3-2-----0---3-2-1-0-------------------3---3--2-1-0-1-2-0-1-2-3-3--2-3-3-|
D|-------2-3---2---------3-2-1-0-----1-2-0---0-------------------------------|
G|-------------------------------3-1-----------------------------------------|

E|-1-3--4-3-1-3--2-1-0-----2-1-0-1-0-----------------------------------------|
A|------3--------------3-2-----------3-2-----0---3-2-1-0---------------------|
D|------0--------------------------------2-3---2---------3-2-1-0-------------|
G|---------------------------------------------------------------3--1--------|

[Drum Roll and End Pizz Section.]

Arco:
E|---1-2-3--1-2-3---------0-1-2-1---0-1--------------------------------------|
A|-3--------------0-1-2-3---------3---------0-1-0---0--3-2-3--1--3-2-1-------|
D|--------------------------------------2-3-------3--------------------------|
G|---------------------------------------------------------------------------|

E|-----------------------2-1-0------------------------1---1--0---------------|
A|-3-2-1-0--3-2-1-0--321-------3-2-1-0--------------3---3------3-2-3-0-2-3-4-|
D|-------------------------------------3-2--1--2--0--------------------------|
G|---------------------------------------------------------------------------|

E|---------------1-3--4-3-1--3--2-1-0-----2-1-0-1-0--------------------------|
A|-3-2-1-2-3-2-3----------------------3-2-----------3-2---------3-2-1-0------|
D|------------------------------------------------------2-3-4-2---------2-3-4|
G|---------------------------------------------------------------------------|

E|----------------------|
A|---3-2-1-0------------|
D|-2---------3-2-1-0-1--|
G|----------------------| [Listen for four beats, then go into:]

Quick Arco Section:
E|---1-2-3--1-2-3---------0-1-2-1---0-1--------------------------------------|
A|-3--------------0-1-2-3---------3----------0-1-0---0--3-2-3-1--3-2-1--0----|
D|---------------------------------------2-3-------3-------------------------|
G|---------------------------------------------------------------------------|

E|--------------------------------------0-1-2-3-4-5-|
A|-----------0-1-2-3--1--3-2-3--2-1-2-3-------------|
D|-3-4-3-2-3----------------------------------------|
G|--------------------------------------------------|

[Time= 1:15min; Note: Play continuously through this transition--no pauses]

Shift to 3rd position (fingerings based in 3rd position):
E|-4--1-----4--3-2-1-2-3-1-2-3-4------------------------|
A|-------3-----------------------3--3--2--3--4--3--2--1-|
D|------------------------------------------------------|
G|------------------------------------------------------| 

Shift back to 1st position (fingerings based in 1st position):
E|------------2-1-0---------------------------------------------0-1-2-1-0----|
A|-3--2-1-2-3-------3-2-1-0-----------------------------0-1-2-3-----------3--|
D|--------------------------3-2-[some-crazy-fast-trills]---------------------|
G|---------------------------------------------------------------------------|

E|-0-1---------------------------------------2-1-0----------------1-2-1-0----|
A|---------0-1-0---0--3-2-3--1-2-3-2-3-4-3-0--------3-2-------------------3--|
D|-----2-3-------3-----------------------------------------------------------|
G|---------------------------------------------------------------------------|

E|-1-2-1-0-----1-2-1-0-----1-2-1-0----2-1-0-2-1-0-2-1-0-2-1-0-3-4-3-2-1-0----|
A|---------3-----------3-----------3--------------------------------------3-2|
D|---------------------------------------------------------------------------|
G|---------------------------------------------------------------------------|

E|---------------------------------------------------------------------------|
A|-3---2---1---0--------------0---3---2---1---0------------------------------|
D|----------------3---2---3-----------------------3---2---3---1--------------|
G|---------------------------------------------------------------------------|


Violin Solo:
E|---------------------------------------------------------------------------|
A|-3---2---1------------------------------0---3---2---1---0---1---0---1---2--|
D|-------------2---3-2-1-3-2--0---3-2-1-3------------------------------------|
G|---------------------------------------------------------------------------|

[Play first 8 notes on off-beat of time:]
E|-----------1--2--1--2--3-------0-1---------0-1---------0-1--------0-1-2-1--|
A|--3--2--3------------------0-3-----3---0-3-----3---0-3-----3--0-3---------3|
D|---------------------------------------------------------------------------|
G|---------------------------------------------------------------------------|

E|------0-1-2-1---------0-1-2-1---3-4-3-2-1-0--------------------------------|
A|--0-3---------3---0-3---------3-------------3-2-3---2---1---0--------------|
D|----------------------------------------------------------------3---2---3--|
G|---------------------------------------------------------------------------|

E|------------------------------------------------1---2-1-0-2-1---2-1-0-2-3--|
A|-0---3---2--1-------------------0---3---2---3-----------------3------------|
D|----------------2---3---2---3----------------------------------------------|
G|---------------------------------------------------------------------------|

E|-------------------------------------------------------1-3-1-3-4-2-1-0-2-1-|
A|-3---2---1---0---------------0---3---3---2-1-0-2-3-2-3---------------------|
D|-----------------3---2---3-------------------------------------------------|
G|---------------------------------------------------------------------------|

[double digits indicate playing note twice, as in a grace note]
E|-0-----------------------------1---3---22-33-44-22-33-44-33----1-2-3--1-2-3|
A|---3-2-1-0-------0-3-2--3---2--------------------------------3-------------|
D|-----------3-2-1-----------------------------------------------------------|
G|---------------------------------------------------------------------------|

E|---------0-1-2-1-0---0-1----------------------2-1-0---------3-4-3-2-1-0----|
A|-0-1-2-3-----------3---------0-1--3-2-3-4-3-0-------3-2-1-0-------------3-2|
D|-------------------------2-3-----------------------------------------------|
G|---------------------------------------------------------------------------|

[A few more crazy trills here leading into:]
E|---------0-1-2-1-0---0-1---------------------------------------2-1-2-1-3-4-|
A|-0-1-2-3-----------3----------0-1-0---0--3-2-3-1-2-3-2-3-4-3-0-------------|
D|--------------------------2-3-------3--------------------------------------|
G|---------------------------------------------------------------------------|

[Shift up to 3rd position to play 6 with 4th finger.]
E|-3-1--6---5---4---3---2-1-0-2-1------2-3-2-1-0-------3-4-3-2-1-0-----------|
A|--------------------------------3-0------------3-2-1-------------3-2-------|
D|---------------------------------------------------------------------------|
G|---------------------------------------------------------------------------|

[Shift up to 6th position to play 6 with 1st finger.]
E|-6---7---8---7--8-9-8-7-6---6----6---9---10--------------------1-3-1-3-4-2-|
A|--------------------------9----7-------------3---2-1-0-2-3-2-3-------------|
D|---------------------------------------------------------------------------|
G|---------------------------------------------------------------------------|

E|-1-0-2-1-0---------------------------1-------------------------------------|
A|-----------3-2-1-0-------0-3-2-----3---3---2-4-2---3-1-------0------0-3----|
D|-------------------3-2-1-------------------------------3---2---2---2-------|
G|---------------------------------------------------------------------------|

E|---------------------------1-----------------------------------------------|
A|---0-3-----1-3---2-4-2---3---3---2-4-2---3-1-------0-------0-3-----0-3-----|
D|-2-------3-----------------------------------3---2---2---2-------2---------|
G|---------------------------------------------------------------------------|

E|-------------------1-------------------------------------------------------|
A|---1-3---2-4-2---3---3---2-4-2---3-1-------0-------0-3-----0-3-----1-3-----|
D|-3-----------------------------------3---2---2---2-----0-2-----0-3-----1---|
G|---------------------------------------------------------------------------|

E|-------------0-1-2-1-------0-1-2-1-------0-1-2-1-------0-1-2-1---|
A|-2-4-2---0-3-----------0-3-----------0-3-----------0-3-----------|
D|-----------------------------------------------------------------|
G|-----------------------------------------------------------------|

[Play this three times.]
E|-----0-1-2-1-----|
A|-0-3---------3---|
D|-----------------|
G|-----------------|

E|-2-1-0-2-1-0-2-1-0-2-1-0-2-1-0-2-1-0-2-1-0-2-1-0-3-4-3-2-1-0---------------|
A|-------------------------------------------------------------3-2-3---2---1-|
D|---------------------------------------------------------------------------|
G|---------------------------------------------------------------------------|

E|--------------------|
A|----0------------3--|
D|--------3--2--3-----|
G|--------------------| THE END!





Comments


Popular Zox tabs & chords
Delicious Chords
I Miss You Chords
Wishing For Your Mouth Chords
Cannon Tabs
Carolyn Intro Tabs
Eventually Tabs
Goodnight Tabs
Spades Tabs
Better If Its Worse Ukulele
Goodnight Ukulele


Song lyrics



↑ Back to top | Tablatures and chords are parodies/interpretations of the original songs. You may use it for private study, scholarship, research or language learning purposes only
© 2014 AZChords.com Contact us | Privacy policy | DMCA | Add/correct tabs | Request tabs | Top 50 tabs