» » »

Zox, A Little More Time Tabs (ver.1)

Artists:  A B C D E F G H I J K L M N O P Q R S T U V W X Y Z # 

A Little More Time Tabs (ver.1)

Zox Tabs
Rating:
0/5 (0 votes)
A Little More Time lessons Tabs too difficult? Try these video lessons and learn fast
                Little More time - By Zox

Only half of the song is tabbed sorry :( i will finish it ASAP
ENjoy


Tuning: standard

(Intro):
e|12------------------------------------------------------12-----------------|
B|-15--12--10-----------------------------------------12------15-12--10------|
G|-------------11-11h12-12-11--9~--7-12-11-9~-----7-9-12---------------------|
D|---------------------------------------------------------------------------|
A|---------------------------------------------------------------------------|
E|---------------------------------------------------------------------------|

e|-----------------------------------------------------12--------------------|
B|-------10-----------------------------------------12----15-12-10-----------|
G|-11-12----12h11h12--11--9~---7-12-11-9~----7-9-12--------------------------|
D|---------------------------------------------------------------------------|
A|---------------------------------------------------------------------------|
E|---------------------------------------------------------------------------|

e|---------------------------------------------------------------------------|
B|---------------------------------------------------------------------------|
G|--11-11h12-11h12--11-9~------(reapeat this rift 2x)------------------------|
D|---------------------------------------------------------------------------|
A|---------------------------------------------------------------------------|
E|---------------------------------------------------------------------------|

e|-----------------------------------------------------------------------------|
B|-----------------------------------------------------------------------------|
G|-99--99---55--55---12-12--12-12---14-14---14-14------------------------------|
D|-99--99---55--55---12-12--12-12---14-14---14-14--------(x2)------------------|
A|-77--77---33--33---10-10--10-10---12-12---12-12------------------------------|
E|-----------------------------------------------------------------------------|

e|-----------------------------------------------------------------------------|
B|-----------------------------------------------------------------------------|
G|-1212--1212---99--99---77--77---55--55---77--77---99---1212--1212------------|
D|-1212--1212---77--77---77--77---55--55---77--77---99---1212--1212------------|
A|-1010--1010---77--77---55--55---33--33---55--55---77---1010--1010------------|
-|
E|--------------------------------------------------------------------------


e|---------------------------------------------------------------------------|
B|---------------------------------------------------------------------------|
G|-----12--------------------------------------------------------------------|
D|--------12-----------------------------------------------------------------|
A|--10-----------------------------------------------------------------------|
E|---------------------------------------------------------------------------|

| /  slide up
| \  slide down
| h  hammer-on
| p  pull-off
| ~  vibrato
| +  harmonic
| x  Mute note
            
Submit corrections

comments powered by Disqus
↑ Back to top | Zox Tabs for A Little More Time. Lyrics for acoustic guitar and electric guitar. Tablatures and chords are parodies/interpretations of the original songs. You may use it for private study, scholarship, research or language learning purposes only