» » »

Zornik, The Enemy Tabs (ver.1)

Artists:  A B C D E F G H I J K L M N O P Q R S T U V W X Y Z # 

The Enemy Tabs (ver.1)

Zornik Tabs
 Rating:
3.3/5 (6 votes)
The Enemy lessons Tabs too difficult? Try these video lessons and learn fast
                intro clean
|-----------|-----------|-----------|-----------|-------------|-------------|
|-----------|-----------|-----------|-----------|-------------|-------------|
|-2-2-2-2-2-|2-2-2--3-3-|-3-3-3-3-3-|-3-3-3-3-3-|-3-3-3-3-5-5-|-5-5-5-5-5-5-|
|-0-0-0-0-0-|0-0-0--1-1-|-1-1-1-1-1-|-1-0-0-0-0-|-0-0-0-0-3-3-|-3-3-3-3-3-3-|
|-----------|-----------|-----------|-----------|-------------|-------------|
|-----------|-----------|-----------|-----------|-------------|-------------|
verse 1 clean ( you build a baricade...)
|-----------|-----------|-----------|-----------|-------------|-------------|
|-----------|-----------|-----------|-----------|-------------|-------------|
|-2-2-2-2-2-|2-2-2--3-3-|-3-3-3-3-3-|-3-3-3-3-3-|-3-3-3-3-5-5-|-5-5-5-5-5-5-|
|-0-0-0-0-0-|0-0-0--1-1-|-1-1-1-1-1-|-1-0-0-0-0-|-0-0-0-0-3-3-|-3-3-3-3-3-3-|
|-----------|-----------|-----------|-----------|-------------|-------------|
|-----------|-----------|-----------|-----------|-------------|-------------|
( there's no juliet no romeo...)
|-----------|-----------|-----------|-----------|-------------|-------------|
|-----------|-----------|-----------|-----------|-------------|-------------|
|-2-2-2-2-2-|2-2-2--3-3-|-3-3-3-3-3-|-3-3-3-3-3-|-3-3-3-3-5-5-|-5-5-5-5-5-5-|
|-0-0-0-0-0-|0-0-0--1-1-|-1-1-1-1-1-|-1-0-0-0-0-|-0-0-0-0-3-3-|-3-3-3-3-3-3-|
|-----------|-----------|-----------|-----------|-------------|-------------|
|-----------|-----------|-----------|-----------|-------------|-------------|

verse 2 clean ( as your cage breaks down ...)
|-----------|-----------|-----------|-----------|-------------|-------------|
|-3-3-3-3-3-|-3-3-3-5-5-|-5-5-5-5-5-|-5-7-7-7-7-|-7-7-7-7-2-2-|-2-2-2-2-2-2-|
|-1-1-1-1-1-|-1-1-1-3-3-|-3-3-3-3-3-|-3-5-5-5-5-|-5-5-5-5-0-0-|-0-0-0-0-0-0-|
|-----------|-----------|-----------|-----------|-------------|-------------|
|-----------|-----------|-----------|-----------|-------------|-------------|
|-----------|-----------|-----------|-----------|-------------|-------------|
(theres only one way out ...)
|-----------|-----------|-----------|-----------|-------------|-------------|
|-3-3-3-3-3-|-3-3-3-5-5-|-5-5-5-5-5-|-5-7-7-7-7-|-7-7-7-7-2-2-|-2-2-2-2-2-2-|
|-1-1-1-1-1-|-1-1-1-3-3-|-3-3-3-3-3-|-3-5-5-5-5-|-5-5-5-5-0-0-|-0-0-0-0-0-0-|
|-----------|-----------|-----------|-----------|-------------|-------------|
|-----------|-----------|-----------|-----------|-------------|-------------|
|-----------|-----------|-----------|-----------|-------------|-------------|
pre chorus ( dont be the one who youre not....)
|-----------|-----------|-----------|-----------|-------------|-------------|
|-----------|-----------|-----------|-----------|-------------|-------------|
|-----------|-----------|-----------|-----------|-------------|-------------|
|-3-3-3-3-3-|-3-3-3-5-5-|-5-5-5-5-5-|-5-7-7-7-7-|-7-7-7-7-2-2-|-2-2-2-2-2-2-|
|-1-1-1-1-1-|-1-1-1-3-3-|-3-3-3-3-3-|-3-5-5-5-5-|-5-5-5-5-0-0-|-0-0-0-0-0-0-|
|-----------|-----------|-----------|-----------|-------------|-------------|
( you slip into something...)
|-----------|-----------|-----------|-----------|-------------|-------------|
|-----------|-----------|-----------|-----------|-------------|-------------|
|-----------|-----------|-----------|-----------|-------------|-------------|
|-3-3-3-3-3-|-3-3-3-5-5-|-5-5-5-5-5-|-5-7-7-7-7-|-7-7-7-7-2-2-|-2-2-2-2-2-2-|
|-1-1-1-1-1-|-1-1-1-3-3-|-3-3-3-3-3-|-3-5-5-5-5-|-5-5-5-5-0-0-|-0-0-0-0-0-0-|
|-----------|-----------|-----------|-----------|-------------|-------------|
Chorus distortion (and take your shot )
|-----------|-----------|-----------|-----------|-------------|-------------|
|-----------|-----------|-----------|-----------|-------------|-------------|
|-----------|-----------|-----------|-----------|-------------|-------------|
|-3-3-3-3-3-|-3-3-3-5-5-|-5-5-5-5-5-|-5-7-7-7-7-|-7-7-7-7-2-2-|-2-2-2-2-2-2-|
|-1-1-1-1-1-|-1-1-1-3-3-|-3-3-3-3-3-|-3-5-5-5-5-|-5-5-5-5-0-0-|-0-0-0-0-0-0-|
|-----------|-----------|-----------|-----------|-------------|-------------|
( make yourself the enemy )
|-----------|-----------|-----------|-----------|-------------|-------------|
|-----------|-----------|-----------|-----------|-------------|-------------|
|-----------|-----------|-----------|-----------|-------------|-------------|
|-3-3-3-3-3-|-3-3-3-5-5-|-5-5-5-5-5-|-5-2 ring--|-------------|-------------|
|-1-1-1-1-1-|-1-1-1-3-3-|-3-3-3-3-3-|-3-0-ring--|-------------|-------------|
|-----------|-----------|-----------|-----------|-------------|-------------|
verse 3 clean ( as the wall ... )
|-----------|-----------|-----------|-----------|-------------|-------------|
|-----------|-----------|-----------|-----------|-------------|-------------|
|-2-2-2-2-2-|2-2-2--3-3-|-3-3-3-3-3-|-3-3-3-3-3-|-3-3-3-3-5-5-|-5-5-5-5-5-5-|
|-0-0-0-0-0-|0-0-0--1-1-|-1-1-1-1-1-|-1-0-0-0-0-|-0-0-0-0-3-3-|-3-3-3-3-3-3-|
|-----------|-----------|-----------|-----------|-------------|-------------|
|-----------|-----------|-----------|-----------|-------------|-------------|
( and the soundwaves ...)
|-----------|-----------|-----------|-----------|-------------|-------------|
|-----------|-----------|-----------|-----------|-------------|-------------|
|-2-2-2-2-2-|2-2-2--3-3-|-3-3-3-3-3-|-3-3-3-3-3-|-3-3-3-3-5-5-|-5-5-5-5-5-5-|
|-0-0-0-0-0-|0-0-0--1-1-|-1-1-1-1-1-|-1-0-0-0-0-|-0-0-0-0-3-3-|-3-3-3-3-3-3-|
|-----------|-----------|-----------|-----------|-------------|-------------|
|-----------|-----------|-----------|-----------|-------------|-------------|

verse 4 clean ( as your cage breaks down ...)
|-----------|-----------|-----------|-----------|-------------|-------------|
|-3-3-3-3-3-|-3-3-3-5-5-|-5-5-5-5-5-|-5-7-7-7-7-|-7-7-7-7-2-2-|-2-2-2-2-2-2-|
|-1-1-1-1-1-|-1-1-1-3-3-|-3-3-3-3-3-|-3-5-5-5-5-|-5-5-5-5-0-0-|-0-0-0-0-0-0-|
|-----------|-----------|-----------|-----------|-------------|-------------|
|-----------|-----------|-----------|-----------|-------------|-------------|
|-----------|-----------|-----------|-----------|-------------|-------------|
(theres only one way out ...)
|-----------|-----------|-----------|-----------|-------------|-------------|
|-3-3-3-3-3-|-3-3-3-5-5-|-5-5-5-5-5-|-5-7-7-7-7-|-7-7-7-7-2-2-|-2-2-2-2-2-2-|
|-1-1-1-1-1-|-1-1-1-3-3-|-3-3-3-3-3-|-3-5-5-5-5-|-5-5-5-5-0-0-|-0-0-0-0-0-0-|
|-----------|-----------|-----------|-----------|-------------|-------------|
|-----------|-----------|-----------|-----------|-------------|-------------|
|-----------|-----------|-----------|-----------|-------------|-------------|

pre chorus ( dont be the one who youre not....)
|-----------|-----------|-----------|-----------|-------------|-------------|
|-----------|-----------|-----------|-----------|-------------|-------------|
|-----------|-----------|-----------|-----------|-------------|-------------|
|-3-3-3-3-3-|-3-3-3-5-5-|-5-5-5-5-5-|-5-7-7-7-7-|-7-7-7-7-2-2-|-2-2-2-2-2-2-|
|-1-1-1-1-1-|-1-1-1-3-3-|-3-3-3-3-3-|-3-5-5-5-5-|-5-5-5-5-0-0-|-0-0-0-0-0-0-|
|-----------|-----------|-----------|-----------|-------------|-------------|
( you slip into something...)
|-----------|-----------|-----------|-----------|-------------|-------------|
|-----------|-----------|-----------|-----------|-------------|-------------|
|-----------|-----------|-----------|-----------|-------------|-------------|
|-3-3-3-3-3-|-3-3-3-5-5-|-5-5-5-5-5-|-5-7-7-7-7-|-7-7-7-7-2-2-|-2-2-2-2-2-2-|
|-1-1-1-1-1-|-1-1-1-3-3-|-3-3-3-3-3-|-3-5-5-5-5-|-5-5-5-5-0-0-|-0-0-0-0-0-0-|
|-----------|-----------|-----------|-----------|-------------|-------------|

Chorus distortion (and take your shot )
|-----------|-----------|-----------|-----------|-------------|-------------|
|-----------|-----------|-----------|-----------|-------------|-------------|
|-----------|-----------|-----------|-----------|-------------|-------------|
|-3-3-3-3-3-|-3-3-3-5-5-|-5-5-5-5-5-|-5-7-7-7-7-|-7-7-7-7-2-2-|-2-2-2-2-2-2-|
|-1-1-1-1-1-|-1-1-1-3-3-|-3-3-3-3-3-|-3-5-5-5-5-|-5-5-5-5-0-0-|-0-0-0-0-0-0-|
|-----------|-----------|-----------|-----------|-------------|-------------|
( make yourself the enemyyyy)
|-----------|-----------|-----------|-----------|-------------|-------------|
|-----------|-----------|-----------|-----------|-------------|-------------|
|-----------|-----------|-----------|-----------|-------------|-------------|
|-3-3-3-3-3-|-3-3-3-5-5-|-5-5-5-5-5-|-5-7-7-7-7-|-7-7-7-7-2-2-|-2-2-2-2-2-2-|
|-1-1-1-1-1-|-1-1-1-3-3-|-3-3-3-3-3-|-3-5-5-5-5-|-5-5-5-5-0-0-|-0-0-0-0-0-0-|
|-----------|-----------|-----------|-----------|-------------|-------------|

chorus repeat ( and take your shot )
|-----------|-----------|-----------|-----------|-------------|-------------|
|-----------|-----------|-----------|-----------|-------------|-------------|
|-----------|-----------|-----------|-----------|-------------|-------------|
|-3-3-3-3-3-|-3-3-3-5-5-|-5-5-5-5-5-|-5-7-7-7-7-|-7-7-7-7-2-2-|-2-2-2-2-2-2-|
|-1-1-1-1-1-|-1-1-1-3-3-|-3-3-3-3-3-|-3-5-5-5-5-|-5-5-5-5-0-0-|-0-0-0-0-0-0-|
|-----------|-----------|-----------|-----------|-------------|-------------|

( make yourself the enemy )
|-----------|-----------|-----------|-----------|-------------|-------------|
|-----------|-----------|-----------|-----------|-------------|-------------|
|-----------|-----------|-----------|-----------|-------------|-------------|
|-3-3-3-3-3-|-3-3-3-5-5-|-5-5-5-5-5-|-5-2 ring--|-------------|-------------|
|-1-1-1-1-1-|-1-1-1-3-3-|-3-3-3-3-3-|-3-0-ring--|-------------|-------------|
|-----------|-----------|-----------|-----------|-------------|-------------|
(instrumental with effects )
|-----------|-----------|-----------|-----------|-------------|-------------|
|-----------|-----------|-----------|-----------|-------------|-------------|
|-3-2-3-0---|-3-2-3-0---|-3-2-3-0---|-3-2-3-0---|-3-2-3-0-----|-3-2-3-0-----|
|-----------|-----------|-----------|-----------|-------------|-------------|
|-----------|-----------|-----------|-----------|-------------|-------------|
|-----------|-----------|-----------|-----------|-------------|-------------|

|-----------|-----------|-----------|-----------|-------------|-------------|
|-----------|-----------|-----------|-----------|-------------|-------------|
|-3-2-3-0---|-3-2-3-0---|-3-2-3-0---|-3-2-3-0---|-3-2-3-0-----|-3-2-3-0-----|
|-----------|-----------|-----------|-----------|-------------|-------------|
|-----------|-----------|-----------|-----------|-------------|-------------|
|-----------|-----------|-----------|-----------|-------------|-------------|





|-----------|-----------|-----------|-----------|-------------|-------------|
|-----------|-----------|-----------|-----------|-------------|-------------|
|-3-2-3-0---|-3-2-3-0---|-----------|-----------|-------------|-------------|
|-----------|-----------|-----------|-----------|-------------|-------------|
|-----------|-----------|-----------|-----------|-------------|-------------|
|-----------|-----------|-----------|-----------|-------------|-------------|

vocals  ( and take your shot and grab your chance , proof your not the enemy)

Chorus distortion (and take your shot )
|-----------|-----------|-----------|-----------|-------------|-------------|
|-----------|-----------|-----------|-----------|-------------|-------------|
|-----------|-----------|-----------|-----------|-------------|-------------|
|-3-3-3-3-3-|-3-3-3-5-5-|-5-5-5-5-5-|-5-7-7-7-7-|-7-7-7-7-2-2-|-2-2-2-2-2-2-|
|-1-1-1-1-1-|-1-1-1-3-3-|-3-3-3-3-3-|-3-5-5-5-5-|-5-5-5-5-0-0-|-0-0-0-0-0-0-|
|-----------|-----------|-----------|-----------|-------------|-------------|
( make yourself the enemyyyy)
|-----------|-----------|-----------|-----------|-------------|-------------|
|-----------|-----------|-----------|-----------|-------------|-------------|
|-----------|-----------|-----------|-----------|-------------|-------------|
|-3-3-3-3-3-|-3-3-3-5-5-|-5-5-5-5-5-|-5-7-7-7-7-|-7-7-7-7-2-2-|-2-2-2-2-2-2-|
|-1-1-1-1-1-|-1-1-1-3-3-|-3-3-3-3-3-|-3-5-5-5-5-|-5-5-5-5-0-0-|-0-0-0-0-0-0-|
|-----------|-----------|-----------|-----------|-------------|-------------|

chorus repeat(and take your shot )
|-----------|-----------|-----------|-----------|-------------|-------------|
|-----------|-----------|-----------|-----------|-------------|-------------|
|-----------|-----------|-----------|-----------|-------------|-------------|
|-3-3-3-3-3-|-3-3-3-5-5-|-5-5-5-5-5-|-5-7-7-7-7-|-7-7-7-7-2-2-|-2-2-2-2-2-2-|
|-1-1-1-1-1-|-1-1-1-3-3-|-3-3-3-3-3-|-3-5-5-5-5-|-5-5-5-5-0-0-|-0-0-0-0-0-0-|
|-----------|-----------|-----------|-----------|-------------|-------------|
( make yourself the enemy )
|-----------|-----------|-----------|-----------|-------------|-------------|
|-----------|-----------|-----------|-----------|-------------|-------------|
|-----------|-----------|-----------|-----------|-------------|-------------|
|-3-3-3-3-3-|-3-3-3-5-5-|-5-5-5-5-5-|-5-2 ring--|-------------|-------------|
|-1-1-1-1-1-|-1-1-1-3-3-|-3-3-3-3-3-|-3-0-ring--|-------------|-------------|
|-----------|-----------|-----------|-----------|-------------|-------------|
( instrumental effect fade out outro)
|-----------|-----------|-----------|-----------|-------------|-------------|
|-----------|-----------|-----------|-----------|-------------|-------------|
|-3-2-3-0---|-3-2-3-0---|-3-2-3-0---|-3-2-3-0---|-3-2-3-0-----|-3-2-3-0-ring|
|-----------|-----------|-----------|-----------|-------------|-------------|
|-----------|-----------|-----------|-----------|-------------|-------------|
|-----------|-----------|-----------|-----------|-------------|-------------|

99% accuraat 

ENJOY!
            
Submit corrections

comments powered by Disqus
↑ Back to top | Zornik Tabs for The Enemy. Lyrics for acoustic guitar and electric guitar. Tablatures and chords are parodies/interpretations of the original songs. You may use it for private study, scholarship, research or language learning purposes only