» » »

Zornik, Smiling In The Sun Tabs (ver.1)

Artists:  A B C D E F G H I J K L M N O P Q R S T U V W X Y Z # 

Smiling In The Sun Tabs (ver.1)

Zornik Tabs
 Rating:
4/5 (4 votes)
Smiling In The Sun lessons Tabs too difficult? Try these video lessons and learn fast
                -------------------------------------------------------------------------------
-------------------------------------------------------------------------------

Tuning:E A D G B e ( standaard )



lead ( tom )intro :
e|-----------------------------------------------------------------------------|
B|-----------------------------------------------------------------------------|
G|-----------------------------------------------------------------------------|
D|-----------------------------------------------------------------------------|
A|------------------5~----3-2-------------------5/7-5-3-2-0--------------------|
E|--5~---5-7-8-----------------3-5~-------5-8-7--------------------------------|
|

rhythm (koen) intro :  [baslijn zelfde noten]

Am 4/4

F  2/4

G  2/4



lead (tom) verse 1
e|---------------------------------------------------------------------------|
B|---------------------------------------------------------------------------|
G|---------------------------------------------------------------------------|
D|---------------------------------------------------------------------------|
A|--0----0-----3~------------------------------------------------------------|
E|---0----0---1--------------------------------------------------------------|



rhythm verse 1 (koen):

Am 4/4

F  2/4

G  2/4





CHORUS 1 (koen)

C  4/4

G  4/4

AM 4/4

F  4/4



lead ( tom ) bridge 1
e|-----------------------------------------------------------------------------|
B|-----------------------------------------------------------------------------|
G|-----------------------------------------------------------------------------|
D|-----------------------------------------------------------------------------|
A|------------------5~----3-2--------------------------------------------------|
E|--5~---5-7-8-----------------3-5~--------------------------------------------|
|


rhythm (koen) bridge 1

Am 4/4

F  2/4

G  2/4



rhythm (koen) verse 2

Am 4/4

F  2/4

G  2/4


rhythm (koen) chorus 2  ( speel 2 keer )

C  4/4

G  4/4

AM 4/4

F  4/4



lead (tom) " break" "achter de piano melodie " ( speel dit een paar keer )

e|---------------------------------------------------------------------------|
B|---------------------------------------------------------------------------|
G|--5------------------------------------------------------------------------|
D|--5----8-----3-------------------------------------------------------------|
A|--3----8-----3-------------------------------------------------------------|
E|-------6-----1-------------------------------------------------------------|


rhythm (koen) chorus 3  ( speel 2 keer )

C  4/4

G  4/4

AM 4/4

F  4/4


************************************

| /   slide up
| \   slide down
| h   hammer-on
| p   pull-off
| ~   vibrato
| +   harmonic
| x   Mute note
| b   Bend
| pb  Pre-bend
| br  Bend release
| pbr Pre-bend release
| brb Bend release bend

************************************
            
Submit corrections

comments powered by Disqus
↑ Back to top | Zornik Tabs for Smiling In The Sun. Lyrics for acoustic guitar and electric guitar. Tablatures and chords are parodies/interpretations of the original songs. You may use it for private study, scholarship, research or language learning purposes only