» » »

Running After You Tabs (ver.1)

Artists:  A B C D E F G H I J K L M N O P Q R S T U V W X Y Z # 

Running After You Tabs (ver.1)

Zornik
Rating:
3/5 (1 vote)

Hard to play? Try these video lessons and learn fast.
                -------------------------------------------------------------------------------
-------------------------------------------------------------------------------

Tuning:E

intro ( rhythm guitar )


e|---------------------------------------------------------------------------|
B|---------------------------------------------------------------------------|
G|--------------------7-7-7-7-7-7-7-7----------------------------------------|
D|---4-4-4-4-4-4-4-4--7-7-7-7-7-7-7-7--7-7-7-7-7-7-7-7--6-6-6-6-6-6-6-6------|
A|---4-4-4-4-4-4-4-4--5-5-5-5-5-5-5-5--7-7-7-7-7-7-7-7--6-6-6-6-6-6-6-6------|
E|---2-2-2-2-2-2-2-2-------------------5-5-5-5-5-5-5-5--4-4-4-4-4-4-4-4------|


e|---------------------------------------------------------------------------|
B|---------------------------------------------------------------------------|
G|--------------------7-7-7-7-7-7-7-7----------------------------------------|
D|---4-4-4-4-4-4-4-4--7-7-7-7-7-7-7-7--7-7-7-7-7-7-7-7--6-6-6-6-6-6-6-6------|
A|---4-4-4-4-4-4-4-4--5-5-5-5-5-5-5-5--7-7-7-7-7-7-7-7--6-6-6-6-6-6-6-6------|
E|---2-2-2-2-2-2-2-2-------------------5-5-5-5-5-5-5-5--4-4-4-4-4-4-4-4------|

intro ( piano ) @ guitar

e|--2---5-4-2---5-4-0---9-0---4--0--2---5-4-2---5-4-0---9-0---4--0--2--------|
B|---------------------------------------------------------------------------|
G|---------------------------------------------------------------------------|
D|---------------------------------------------------------------------------|
A|---------------------------------------------------------------------------|
E|---------------------------------------------------------------------------|

verse 1 ( rhythm guitar ) '' I froze ...""

e|---------------------------------------------------------------------------|
B|---------------------------------------------------------------------------|
G|--------------------7-7-7-7-7-7-7-7----------------------------------------|
D|---4-4-4-4-4-4-4-4--7-7-7-7-7-7-7-7--7-7-7-7-7-7-7-7--6-6-6-6-6-6-6-6------|
A|---4-4-4-4-4-4-4-4--5-5-5-5-5-5-5-5--7-7-7-7-7-7-7-7--6-6-6-6-6-6-6-6------|
E|---2-2-2-2-2-2-2-2-------------------5-5-5-5-5-5-5-5--4-4-4-4-4-4-4-4------|


'' I Gaze ...""
e|---------------------------------------------------------------------------|
B|---------------------------------------------------------------------------|
G|--------------------7-7-7-7-7-7-7-7----------------------------------------|
D|---4-4-4-4-4-4-4-4--7-7-7-7-7-7-7-7--7-7-7-7-7-7-7-7--6-6-6-6-6-6-6-6------|
A|---4-4-4-4-4-4-4-4--5-5-5-5-5-5-5-5--7-7-7-7-7-7-7-7--6-6-6-6-6-6-6-6------|
E|---2-2-2-2-2-2-2-2-------------------5-5-5-5-5-5-5-5--4-4-4-4-4-4-4-4------|


'' But all i ever ... ''

e|---------------------------------------------------------------------------|
B|---------------------------------------------------------------------------|
G|--------------------7-7-7-7-7-7-7-7----------------------------------------|
D|---4-4-4-4-4-4-4-4--7-7-7-7-7-7-7-7--7-7-7-7-7-7-7-7--6-6-6-6-6-6-6-6------|
A|---4-4-4-4-4-4-4-4--5-5-5-5-5-5-5-5--7-7-7-7-7-7-7-7--6-6-6-6-6-6-6-6------|
E|---2-2-2-2-2-2-2-2-------------------5-5-5-5-5-5-5-5--4-4-4-4-4-4-4-4------|


'' you ran a bullet .. ''

e|---------------------------------------------------------------------------|
B|---------------------------------------------------------------------------|
G|--------------------7-7-7-7-7-7-7-7----------------------------------------|
D|---4-4-4-4-4-4-4-4--7-7-7-7-7-7-7-7--7-7-7-7-7-7-7-7--6-6-6-6-6-6-6-6------|
A|---4-4-4-4-4-4-4-4--5-5-5-5-5-5-5-5--7-7-7-7-7-7-7-7--6-6-6-6-6-6-6-6------|
E|---2-2-2-2-2-2-2-2-------------------5-5-5-5-5-5-5-5--4-4-4-4-4-4-4-4------|


''and oh, yeah...''

e|---------------------------------------------------------------------------|
B|---------------------------------------------------------------------------|
G|---------------------------------------------------------------------------|
D|--7-7-7-7-7-7-7-7--6-6-6-6-6-6-6-6--4-4-4-4-4-4-4-4--6-6-6-6-6-6-6-6-------|
A|--7-7-7-7-7-7-7-7--6-6-6-6-6-6-6-6--4-4-4-4-4-4-4-4--6-6-6-6-6-6-6-6-------|
E|--5-5-5-5-5-5-5-5--4-4-4-4-4-4-4-4--2-2-2-2-2-2-2-2--4-4-4-4-4-4-4-4-------|

 " you ran a bullet.... "
e|---------------------------------------------------------------------------|
B|---------------------------------------------------------------------------|
G|---------------------------------------------------------------------------|
D|--7-7-7-7-7-7-7-7--6-6-6-6-6-6-6-6--4-4-4-4-4-4-4-4--6-6-6-6-6-6-6-6-------|
A|--7-7-7-7-7-7-7-7--6-6-6-6-6-6-6-6--4-4-4-4-4-4-4-4--6-6-6-6-6-6-6-6-------|
E|--5-5-5-5-5-5-5-5--4-4-4-4-4-4-4-4--2-2-2-2-2-2-2-2--4-4-4-4-4-4-4-4-------|


e|----------------------------------------------------------------------------|
B|----------------------------------------------------------------------------|
G|----------------------------------------------------------------------------|
D|--7-7-7-7-7-7-7-7--6-6-6-6-6------------------------------------------------|
A|--7-7-7-7-7-7-7-7--6-6-6-6-6------------------------------------------------|
E|--5-5-5-5-5-5-5-5--4-4-4-4-4------------------------------------------------|


chorus '' where's my ... ''

e|---------------------------------------------------------------------------|
B|---------------------------------------------------------------------------|
G|--------------------7-7-7-7-7-7-7-7----------------------------------------|
D|---4-4-4-4-4-4-4-4--7-7-7-7-7-7-7-7--7-7-7-7-7-7-7-7--6-6-6-6-6-6-6-6------|
A|---4-4-4-4-4-4-4-4--5-5-5-5-5-5-5-5--7-7-7-7-7-7-7-7--6-6-6-6-6-6-6-6------|
E|---2-2-2-2-2-2-2-2-------------------5-5-5-5-5-5-5-5--4-4-4-4-4-4-4-4------|


e|---------------------------------------------------------------------------|
B|---------------------------------------------------------------------------|
G|--------------------7-7-7-7-7-7-7-7----------------------------------------|
D|---4-4-4-4-4-4-4-4--7-7-7-7-7-7-7-7--7-7-7-7-7-7-7-7--6-6-6-6-6-6-6-6------|
A|---4-4-4-4-4-4-4-4--5-5-5-5-5-5-5-5--7-7-7-7-7-7-7-7--6-6-6-6-6-6-6-6------|
E|---2-2-2-2-2-2-2-2-------------------5-5-5-5-5-5-5-5--4-4-4-4-4-4-4-4------|


e|---------------------------------------------------------------------------|
B|---------------------------------------------------------------------------|
G|---5-5-5-5-5-5-------------------------------------------------------------|
D|---5-5-5-5-5-5-------------------------------------------------------------|
A|---3-3-3-3-3-3-------------------------------------------------------------|
E|---------------------------------------------------------------------------|

e|---------------------------------------------------------------------------|
B|---------------------------------------------------------------------------|
G|---------------------------------------------------------------------------|
D|-4-4-4-7-7-7-7--4-4-4-7-7-7-7--4-4-4-7-7-7-7--4-4-4-7-7-7-7----------------|
A|-4-4-4-7-7-7-7--4-4-4-7-7-7-7--4-4-4-7-7-7-7--4-4-4-5-5-5-5----------------|
E|-2-2-2-5-5-5-5--2-2-2-5-5-5-5--2-2-2-5-5-5-5--2-2-2-5-5-5-5----------------|

verse 2 " my blood doesn't seem to flow..."

e|---------------------------------------------------------------------------|
B|---------------------------------------------------------------------------|
G|--------------------7-7-7-7-7-7-7-7----------------------------------------|
D|---4-4-4-4-4-4-4-4--7-7-7-7-7-7-7-7--7-7-7-7-7-7-7-7--6-6-6-6-6-6-6-6------|
A|---4-4-4-4-4-4-4-4--5-5-5-5-5-5-5-5--7-7-7-7-7-7-7-7--6-6-6-6-6-6-6-6------|
E|---2-2-2-2-2-2-2-2-------------------5-5-5-5-5-5-5-5--4-4-4-4-4-4-4-4------|

" the sparkle in your eye is gone ..."

e|----------------------------------------------------------------------------|
B|----------------------------------------------------------------------------|
G|--------------------7-7-7-7-7-7-7-7-----------------------------------------|
D|---4-4-4-4-4-4-4-4--7-7-7-7-7-7-7-7--7-7-7-7-7-7-7-7--6-6-6-6-6-6-6-6-------|
A|---4-4-4-4-4-4-4-4--5-5-5-5-5-5-5-5--7-7-7-7-7-7-7-7--6-6-6-6-6-6-6-6-------|
E|---2-2-2-2-2-2-2-2-------------------5-5-5-5-5-5-5-5--4-4-4-4-4-4-4-4-------|

'' But all i ever ... ''

e|---------------------------------------------------------------------------|
B|---------------------------------------------------------------------------|
G|--------------------7-7-7-7-7-7-7-7----------------------------------------|
D|---4-4-4-4-4-4-4-4--7-7-7-7-7-7-7-7--7-7-7-7-7-7-7-7--6-6-6-6-6-6-6-6------|
A|---4-4-4-4-4-4-4-4--5-5-5-5-5-5-5-5--7-7-7-7-7-7-7-7--6-6-6-6-6-6-6-6------|
E|---2-2-2-2-2-2-2-2-------------------5-5-5-5-5-5-5-5--4-4-4-4-4-4-4-4------|


'' you ran a bullet .. ''

e|---------------------------------------------------------------------------|
B|---------------------------------------------------------------------------|
G|--------------------7-7-7-7-7-7-7-7----------------------------------------|
D|---4-4-4-4-4-4-4-4--7-7-7-7-7-7-7-7--7-7-7-7-7-7-7-7--6-6-6-6-6-6-6-6------|
A|---4-4-4-4-4-4-4-4--5-5-5-5-5-5-5-5--7-7-7-7-7-7-7-7--6-6-6-6-6-6-6-6------|
E|---2-2-2-2-2-2-2-2-------------------5-5-5-5-5-5-5-5--4-4-4-4-4-4-4-4------|


''and oh, yeah...''

e|---------------------------------------------------------------------------|
B|---------------------------------------------------------------------------|
G|---------------------------------------------------------------------------|
D|--7-7-7-7-7-7-7-7--6-6-6-6-6-6-6-6--4-4-4-4-4-4-4-4--6-6-6-6-6-6-6-6-------|
A|--7-7-7-7-7-7-7-7--6-6-6-6-6-6-6-6--4-4-4-4-4-4-4-4--6-6-6-6-6-6-6-6-------|
E|--5-5-5-5-5-5-5-5--4-4-4-4-4-4-4-4--2-2-2-2-2-2-2-2--4-4-4-4-4-4-4-4-------|

 " you ran a bullet.... "

e|----------------------------------------------------------------------------|
B|----------------------------------------------------------------------------|
G|----------------------------------------------------------------------------|
D|--7-7-7-7-7-7-7-7--6-6-6-6-6-6-6-6--4-4-4-4-4-4-4-4--6-6-6-6-6-6-6-6--------|
A|--7-7-7-7-7-7-7-7--6-6-6-6-6-6-6-6--4-4-4-4-4-4-4-4--6-6-6-6-6-6-6-6--------|
E|--5-5-5-5-5-5-5-5--4-4-4-4-4-4-4-4--2-2-2-2-2-2-2-2--4-4-4-4-4-4-4-4--------|


e|----------------------------------------------------------------------------|
B|----------------------------------------------------------------------------|
G|----------------------------------------------------------------------------|
D|--7-7-7-7-7-7-7-7--6-6-6-6-6------------------------------------------------|
A|--7-7-7-7-7-7-7-7--6-6-6-6-6------------------------------------------------|
E|--5-5-5-5-5-5-5-5--4-4-4-4-4------------------------------------------------|


chorus '' where's my ... ''

e|-----------------------------------------------------------------------------|
B|-----------------------------------------------------------------------------|
G|--------------------7-7-7-7-7-7-7-7------------------------------------------|
D|---4-4-4-4-4-4-4-4--7-7-7-7-7-7-7-7--7-7-7-7-7-7-7-7--6-6-6-6-6-6-6-6--------|
A|---4-4-4-4-4-4-4-4--5-5-5-5-5-5-5-5--7-7-7-7-7-7-7-7--6-6-6-6-6-6-6-6--------|
E|---2-2-2-2-2-2-2-2-------------------5-5-5-5-5-5-5-5--4-4-4-4-4-4-4-4--------|


e|---------------------------------------------------------------------------|
B|---------------------------------------------------------------------------|
G|--------------------7-7-7-7-7-7-7-7----------------------------------------|
D|---4-4-4-4-4-4-4-4--7-7-7-7-7-7-7-7--7-7-7-7-7-7-7-7--6-6-6-6-6-6-6-6------|
A|---4-4-4-4-4-4-4-4--5-5-5-5-5-5-5-5--7-7-7-7-7-7-7-7--6-6-6-6-6-6-6-6------|
E|---2-2-2-2-2-2-2-2-------------------5-5-5-5-5-5-5-5--4-4-4-4-4-4-4-4------|


e|---------------------------------------------------------------------------|
B|---------------------------------------------------------------------------|
G|--------------------7-7-7-7-7-7-7-7----------------------------------------|
D|---4-4-4-4-4-4-4-4--7-7-7-7-7-7-7-7--7-7-7-7-7-7-7-7--6-6-6-6-6-6-6-6------|
A|---4-4-4-4-4-4-4-4--5-5-5-5-5-5-5-5--7-7-7-7-7-7-7-7--6-6-6-6-6-6-6-6------|
E|---2-2-2-2-2-2-2-2-------------------5-5-5-5-5-5-5-5--4-4-4-4-4-4-4-4------|

e|---------------------------------------------------------------------------|
B|---------------------------------------------------------------------------|
G|--------------------7-7-7-7-7-7-7-7----------------------------------------|
D|---4-4-4-4-4-4-4-4--7-7-7-7-7-7-7-7--7-7-7-7-7-7-7-7--6-6-6-6-6-6-6-6------|
A|---4-4-4-4-4-4-4-4--5-5-5-5-5-5-5-5--7-7-7-7-7-7-7-7--6-6-6-6-6-6-6-6------|
E|---2-2-2-2-2-2-2-2-------------------5-5-5-5-5-5-5-5--4-4-4-4-4-4-4-4------|

e|----------------------------------------------------------------------------|
B|----------------------------------------------------------------------------|
G|---5-5-5-5-5-5--------------------------------------------------------------|
D|---5-5-5-5-5-5--------------------------------------------------------------|
A|---3-3-3-3-3-3--------------------------------------------------------------|
E|----------------------------------------------------------------------------|

e|---------------------------------------------------------------------------|
B|---------------------------------------------------------------------------|
G|---------------------------------------------------------------------------|
D|-4-4-4-7-7-7-7--4-4-4-7-7-7-7--4-4-4-7-7-7-7--4-4-4-7-7-7-7----------------|
A|-4-4-4-7-7-7-7--4-4-4-7-7-7-7--4-4-4-7-7-7-7--4-4-4-5-5-5-5----------------|
E|-2-2-2-5-5-5-5--2-2-2-5-5-5-5--2-2-2-5-5-5-5--2-2-2-5-5-5-5----------------|

e|---------------------------------------------------------------------------|
B|---------------------------------------------------------------------------|
G|---------------------------------------------------------------------------|
D|-4-4-4-7-7-7-7--4-4-4-7-7-7-7--4-4-4-7-7-7-7--4-4-4-7-7-7-7----------------|
A|-4-4-4-7-7-7-7--4-4-4-7-7-7-7--4-4-4-7-7-7-7--4-4-4-5-5-5-5----------------|
E|-2-2-2-5-5-5-5--2-2-2-5-5-5-5--2-2-2-5-5-5-5--2-2-2-5-5-5-5----------------|

e|---------------------------------------------------------------------------|
B|---------------------------------------------------------------------------|
G|---------------------------------------------------------------------------|
D|-4-4-4-7-7-7-7--4-4-4-7-7-7-7--4-4-4-7-7-7-7--4-4-4-7-7-7-7----------------|
A|-4-4-4-7-7-7-7--4-4-4-7-7-7-7--4-4-4-7-7-7-7--4-4-4-5-5-5-5----------------|
E|-2-2-2-5-5-5-5--2-2-2-5-5-5-5--2-2-2-5-5-5-5--2-2-2-5-5-5-5----------------|


lead guitar

e|---------------------------------------------------------------------------|
B|-------------------------------------8^-8--9^^^^---------------------------|
G|---4^----4^-4-2-4^-----2------2-----2--------------------------------------|
D|-------------------2h4----2h4---2h4----------------------------------------|
A|---------------------------------------------------------------------------|
E|---------------------------------------------------------------------------|
            
Hard to play? Try these video lessons and learn fast. | Correct




comments powered by Disqus
↑ Back to top | Tablatures and chords are parodies/interpretations of the original songs. You may use it for private study, scholarship, research or language learning purposes only