» » »

Zornik, Pin Me Down Tabs (ver.1)

Artists:  A B C D E F G H I J K L M N O P Q R S T U V W X Y Z # 

Pin Me Down Tabs (ver.1)

Zornik Tabs
Rating:
0/5 (0 votes)
Pin Me Down lessons Tabs too difficult? Try these video lessons and learn fast
                -------------------------------------------------------------------------------
-------------------------------------------------------------------------------


Tuning: Standard


(Intro) Riff:
e|-------------------------------|
B|-------------------------------|
G|-------------------------------|
D|----4-----------4--4-----------|  Play twice
A|----4-----7--6--4--4-----7--6--|
E|----2//5--------2--2//5--------|


Verse: Strum these chords:
e|----9-----------10------9---9-----9---|
B|----10----------10------10--9-----10--|
G|----11----------11------9---9-----11--|
D|--------------------------------------|
A|--------------------------------------|
E|--------------------------------------|


Pre-chorus:
e|-------------------------------|
B|-------------------------------|
G|-------------------------------|
D|----4----4----4-------4----4---| 
A|----4----4----4-------4----4---|
E|----2----2----2p0-2p0-2----2---|


Chorus:
e|---(2)---------------7------5---4--(2)--|
B|---(2)-------7---7---7------5---5--(2)--|
G|---(2)-------7---7---7------6---6--(2)--|
D|----4--------7---7---9------7---6---4---|
A|----4--------5---4---9------7---4---4---|
E|----2----------------7------5---4---2---|

Bridge

Solo

Chorus


************************************

| /   slide up
| \   slide down
| h   hammer-on
| p   pull-off
| ~   vibrato
| +   harmonic
| x   Mute note
| b   Bend
| pb  Pre-bend
| br  Bend release
| pbr Pre-bend release
| brb Bend release bend

************************************
            
Submit corrections

comments powered by Disqus
↑ Back to top | Zornik Tabs for Pin Me Down. Lyrics for acoustic guitar and electric guitar. Tablatures and chords are parodies/interpretations of the original songs. You may use it for private study, scholarship, research or language learning purposes only