» » »

It's So Unreal Bass tabs (ver.1)

Artists:  A B C D E F G H I J K L M N O P Q R S T U V W X Y Z # 

It's So Unreal Bass tabs (ver.1)

Zornik
Rating:
0/5 (0 votes)

Tabs too difficult? Try these video lessons and learn fast.
                Zornik- It's so unreal
-----------------------
intro		start playing this when the drums start
G|---------------------------------|
D|---------------------------------|
A|---------------------------------|
E|-0-0-0-0-0-0-0-0-0-0-0-0-0-0-0-0-|

verse
G|---------------------------------------------------------------|
D|---------------------------------------------------------------|
A|-7-7-7-7-7-7-7-7-7-7-7-7-7-7-7-7-2-2-2-2-2-2-2-2-2-2-2-2-0-2-3-|
E|---------------------------------------------------------------|

pre-chorus
G|--------------------------------------------------------4----|
D|---------------------------------------------------6---------|
A|-------------------------------------------------4-----2-----|
E|-5-5-5-5-5-5-5-5-5-5-5-5-5-5-5-5-4-4-4-4-4-4-4-4-------------|

G|--------------------------------------------------------------|
D|---------------------------------------------------6-----4----|
A|-------------------------------------------------4-----2------|
E|-5-5-5-5-5-5-5-5-5-5-5-5-5-5-5-5-4-4-4-4-4-4-4-4--------------|

chorus
G|---------------------------------|
D|---------------------------------|
A|-7-7-7-7-4-4-4-4-2-2-2-2-0-0-0-0-|
E|(0)------------------------------| 
     play a couple of times and then this

G|---------------------------------|
D|---------------------------------|
A|---------------------------------|
E|-0-0-0-0-0-0-0-0-0-0-0-0-0-0-0-0-|

Intro
Verse
Pre-chorus
Chorus
Intro
Verse
Pre-chorus
Chorus
Bridge (solo) I don’t know how exactly how to call it
            
Tabs too difficult? Try these video lessons and learn fast.




comments powered by Disqus
↑ Back to top | Tablatures and chords are parodies/interpretations of the original songs. You may use it for private study, scholarship, research or language learning purposes only