array
(
    
'itssounreal' => 'itssounreal'
    'zornik' 
=> 'zornik'
)
It's So Unreal Tabs (ver. 1) by Zornik @ AZ CHORDS.COM
» » »

It's So Unreal Tabs (ver.1)

Artists:  A B C D E F G H I J K L M N O P Q R S T U V W X Y Z # 

It's So Unreal Tabs (ver.1)

Zornik
Rating:
0/5 (0 votes)

Hard to play? Try these video lessons and learn fast.
                Zornik - It's so unreal



a  (overdrive-effect)
|-------------------------------|
|-------------------------------|
|-------------------------------|
|-------------------------------|
|-------------------------------|
|0000000000000000000000000000000|

b  (zonder effect)
|------------------------------------------------------------------------------|
|5-5-5-55--4-4-4-44--5-5-5-55--4-4-4-44--5-5-5-55--4-4-4-44--5-5-5-55--4-4-4-44|
|4-4-4-44--4-4-4-44--4-4-4-44--4-4-4-44--4-4-4-44--4-4-4-44--4-4-4-44--4-4-4-44|
|----------------------------------------4-4-4-44--4-4-4-44--4-4-4-44--4-4-4-44|
|------------------------------------------------------------------------------|
|------------------------------------------------------------------------------|

c  (zonder effect)
|----------------------------------------|--------|
|----------------------------------------|--------|
|----------------------------------------|--------|
|77777777-77777777-66666666-11111111-9999|7---9---|
|77777777-77777777-66666666-11111111-9999|7---9---|
|55555555-55555555-44444444--9-9-9-9-7777|5---7---|

d  (zonder effect)
|-4-4-4-4-4-4-4-5-4|-4-4-4-4-4-4-4-5|
|5-5-5-5-5-5-5-----|5-5-5-5-5-5-5---|
|------------------|----------------|
|------------------|----------------|
|------------------|----------------|
|------------------|----------------|

e  (met overdrive effect)
|----------------------------------|
|----------------------------------|
|9-9-9-9--6-6-6-6--4-4-4-4--2-2-2-2|
|9-9-9-9--6-6-6-6--4-4-4-4--2-2-2-2|
|7-7-7-7--4-4-4-4--2-2-2-2--0-0-0-0|
|0-0-0-0---------------------------|
            
Hard to play? Try these video lessons and learn fast. | Correct




comments powered by Disqus
↑ Back to top | Tablatures and chords are parodies/interpretations of the original songs. You may use it for private study, scholarship, research or language learning purposes only