» » »

Destination Zero Tabs (ver.1)

Artists:  A B C D E F G H I J K L M N O P Q R S T U V W X Y Z # 

Destination Zero Tabs (ver.1)

Zornik
Rating:
0/5 (0 votes)

Tabs too difficult? Try these video lessons and learn fast.
                
Attention: Capo on 3rd Fret (Notes according to Capo)
           You can play without, but the tones will 
           sound lower than the original song.

Rythm: To know the rythm listen to the song. It isn’t hard ;).

Legend: *h*: “Hammer on”
        *p*: “Pull Off”


Verse and Chorus Rythm:

    Em           C  Cmaj7  C  Cadd9   C   Cmaj7   C    G6
E||--0-----------0----0----0----0-----0-----0-----0----0---------|
B||--0-----------1----0----1----3-----1-----0-----1----0---------|
G||--0-----------0----0----0----0-----0-----0-----0----0---------|
D||--2-----------2----2----2----2-----2-----2-----2----0---------|
A||--2-----------3----3----3----3-----3-----3-----3----3---------|
E||--0-----------0----0----0----0-----0-----0-----0----2---------|

    G               G5/F#
E||-3-----------------/------------------------------------------|
B||-3-----------------3------------------------------------------|
G||-0-----------------0------------------------------------------|
D||-0-----------------0------------------------------------------|
A||-2-----------------0------------------------------------------|
E||-3-----------------2------------------------------------------|

Interlude 1

E||----10--8--7---------------------10--8--7--5----|
B||-7-------------8-------------7------------------|
G||------------------------------------------------|
D||------------------------------------------------|
A||------------------------------------------------|
E||------------------------------------------------|

Interlude 2

E||----10--8--7------------------------------------|
B||--------------8---------------------------------|
G||------------------------------------------------|
D||--------------------------------7--5------------|
A||------------------------5h7--9--------9--7------|
E||------------------------------------------------|

E||----10--8--7--5---------------------------------|
B||------------------------------------------------|
G||------------------------2h4--6--9—-9p6--4-------|
D||------------------------------------------------|
A||------------------------------------------------|
E||------------------------------------------------|


Any Suggestions, Improvements (I make mistakes too :p), or Anything
            
Tabs too difficult? Try these video lessons and learn fast.


comments powered by Disqus
↑ Back to top | Tablatures and chords are parodies/interpretations of the original songs. You may use it for private study, scholarship, research or language learning purposes only