>
 >
Black Hope Shot Down

Black Hope Shot Down Guitar Tabs

Zornik - Black Hope Shot Down chords, tabs, tablatures, lyrics

Guitar lessons | Add/correct | Request | Top 50 tabs Artists:  A B C D E F G H I J K L M N O P Q R S T U V W X Y Z 0-9

Black Hope Shot Down Guitar Tabs – Zornik

CD, Sheet music, Poster

Do you like Black Hope Shot Down? Share with your friends now
Tabs
			     SONG NAME - ZORNIK

Ik heb op aanvraag van wat Zornik fans mijn tab geupdate en de bridge min of meer 
ik heb ook ingezien dat ze in D tuning spelen dit is je laagste snaar of de E snaar 1 hele 
naar beneden stemmen 

intro+vers
e|-----------------------------------------------------|
B|-----------------------------------------------------|
G|-----------------------------------------------------|
D|---7-77-7-7777-7-77-7-7777---------------------------|
A|---6-55-6-5555-6-55-6-5555-7-77-7-7777-7-77-7-7777---|
D|---------------------------8-77-8-7777-8-77-8-7777---|

e|------------------------------------------------------|
B|------------------------------------------------------|
G|------------------------------------------------------|
D|---101010101010101010101010-5-55-5-5555-5-55-5-5555---|
A|---9-88-9-8888-9-88-9-8888--4-33-4-3333-4-33-4-3333---|
D|------------------------------------------------------|
dit zijn powerchords(zonder de pink) van 8 maar ik krijg de 10 er niet goed op dus je
het gewoon zoals de andere chords spelen
dus: niet 1 0  maar 10
          8 8       8
je kan het ook zo spelen maar ik denk dat het zoals hierbove gespeeld moet worden
e|-----------------------------------------------------|
B|-----------------------------------------------------|
G|-----------------------------------------------------|
D|---8-77-8-7777-8-77-8-7777---------------------------|
A|---6-55-6-5555-6-55-6-5555-8-77-8-7777-8-77-8-7777---|
D|---------------------------8-77-8-7777-8-77-8-7777---|

e|-----------------------------------------------------|
B|-----------------------------------------------------|
G|-----------------------------------------------------|
D|---1110-111010-1110-111010-6-55-6-5555-6-55-6-5555---|
A|---9-88-9-8888-9-88-9-8888-4-33-4-3333-4-33-4-3333---|
D|-----------------------------------------------------|
   weer gewoon een 8 chord

chorus
e|--------------------------------------------------------------------------|
B|--------------------------------------------------------------------------|
G|---7777777777777777------------------1010101010101010-55555555-66666666---|
D|---7777777777777777-7777777777777777-1010101010101010-55555555-55555555---|
A|---5555555555555555-7777777777777777-8888888888888888-33333333-44444444---|
D|--------------------7777777777777777--------------------------------------|
                                 dit is weer een powerchord van 8
de chorus kan ook dit zijn :
e|--------------------------------------------------------------------------|
B|--------------------------------------------------------------------------|
G|---7777777777777777-----------------------------------55555555-66666666---|
D|---7777777777777777-7777777777777777-3333333333333333-55555555-55555555---|
A|---5555555555555555-7777777777777777-3333333333333333-33333333-44444444---|
D|--------------------7777777777777777-3333333333333333---------------------|
(veel maakt het niet uit)

overgang
e|----------------------------------|
B|----------------------------------|
G|-------7~-----7~-----7~-----7-7---|
D|---777----777----777----777--7----|
A|---555----555----555----555-------|
D|----------------------------------|

(synth) pre bridge
e|--------------------------------------------------------------------------|
B|--------------------------------------------------------------------------|
G|--------------------------------------------------------------------------|
D|--------------------------------------------------------------------------|
A|---5555555555555555-----------------------------------33333333-44444444---|
D|--------------------7777777777777777-3333333333333333---------------------|
de bridge heb ik niet kunnen ontcijferen

e|----------------------------------------|
B|---------------------------------4(~)---|
G|-----------------------------3-5--------|
D|---------3-5-------------3-5------------|
A|-----3-5-------3-5-0-3-5----------------|
D|---0---------0--------------------------|
de laatste keer de bovendste 4 goed benden !

je kan het ook zo doen:
e|-------------------------------------------------|
B|-------------------------------------------------|
G|------------------------------------------8(~)---|
D|-------------------------------------8-10--------|
A|-----------8-10---------0-------8-10-------------|
D|---0-10-12------0-10-12---10-12------------------|

of dit (mijn persoonlijke favoriet)
e|---------------------------------------------|
B|--------------------------------------4(~)---|
G|----------------------------------3-5--------|
D|------------------------------3-5------------|
A|-----------8-10---------0-3-5----------------|
D|---0-10-12------0-10-12----------------------|


geef deze tab ook aub sterren

| /  slide up
| \  slide down
| h  hammer-on
| p  pull-off
| ~  vibrato
| +  harmonic
| x  Mute note





Comments


Popular Zornik tabs & chords
Believe In Me Bass Tabs
Believe In Me 1 Bass Tabs
4 Million Minutes Chords
Goodbye Intro Tabs
Hey Girl Tabs
Love Affair Tabs
Pin Me Down Tabs
What's Wrong? Tabs
You Move Me Tabs
Scared Of Yourself Ukulele


Song lyrics



↑ Back to top | Tablatures and chords are parodies/interpretations of the original songs. You may use it for private study, scholarship, research or language learning purposes only
© 2014 AZChords.com Contact us | Privacy policy | DMCA | Add/correct tabs | Request tabs | Top 50 tabs