» » »

Zombina And The Skeletones, Nobody Likes You When Youre Dead Bass tabs (ver.1)

Artists:  A B C D E F G H I J K L M N O P Q R S T U V W X Y Z # 

Nobody Likes You When Youre Dead Bass tabs (ver.1)

Zombina And The Skeletones Tabs
Rating:
5/5 (1 vote)
Nobody Likes You When Youre Dead lessons Tabs too difficult? Try these video lessons and learn fast
                
Intro

G|---------------------------|        |-----------------|
D|-------4-3-4-3-4-3-1-------|        |-----------------|
B|-3-33----------------------|        |-3-33-3--1-1-1-1-|
E|---------------------------|3 times |-----------------|1 time

Verse (part 1)

G------------------------------------------|
D------------------------------------------|
A-/3-333333-1/333333333--------------------|
E-----------------------44444444--11111111-|2 times

Verse (part 2)

G-------------------------------------------------------------|
D-------------------------------------------5-3-5-6-5-3-5-(3)-|
A--------111111-333333--------------------------------------3-|
E-444444---------------111111-444444-333333-------------------| 1 time

Chorus

G----------------------------------------------------------|
D----------------------------------------------------------|
A-333333-666666---------------333333-666666----------------|
E---------------444444-111111---------------444444-666-666-|

G---------------------------------------------------------|
D---------------------------------------------------------|
A-666666--------666666--------333333-666666---------------|
E--------444444--------444444---------------444444-333333-| 1 time

Repeat Intro

Break/Bridge

G-------------------|
D-------------------|
A-1/3----1/3----1/3-|
E-------------------| 1 time

Verse (part 1 + part 2)

Chorus

Intro.

****************************************************************************
Here you go, a cool song to play and a very easy one too.
            
Submit corrections

comments powered by Disqus
↑ Back to top | Zombina And The Skeletones Bass for Nobody Likes You When Youre Dead. Lyrics for acoustic guitar and electric guitar. Tablatures and chords are parodies/interpretations of the original songs. You may use it for private study, scholarship, research or language learning purposes only