» » »

Zombina And The Skeletones, Nobody Likes You When Youre Dead Tabs (ver.1)

Artists:  A B C D E F G H I J K L M N O P Q R S T U V W X Y Z # 

Nobody Likes You When Youre Dead Tabs (ver.1)

Zombina And The Skeletones Tabs
 Rating:
4/5 (8 votes)
Nobody Likes You When Youre Dead lessons Tabs too difficult? Try these video lessons and learn fast
                Intro
E|---------------------------|   |----------------|
B|---------------------------|   |----------------|
G|---------------------------|   |----------------|
D|-5-55--4-3-4-3-4-3-1-------|x3 |-5-55-5--3333---|
B|-3-33----------------------|   |-3-33-3--1111---|
E|---------------------------|   |----------------|

Verse 1
E------------------------------------------|
B------------------------------------------|
G------------------------------------------|
D-5-555555-3-555555555---------------------|X2
A-3-333333-1-333333333--66666666--33333333-|
E-----------------------44444444--11111111-|
 Verse 1 Part 2
E--------------------------------------------------------|
B--------------------------------------------------------|
G--------------------------------------------------------|
D--------333333-555555----------------------5-3---6-5-3--|
A-666666-111111-333333-333333-666666-555555-----6------6-|
E-444444---------------111111-444444-333333--------------|

Chorus
E----------------------------------------------------------|
B----------------------------------------------------------|
G----------------------------------------------------------|
D-555555-888888---------------555555-888888----------------|
A-333333-666666-666666-333333-333333-666666-666666-888-888-|
E---------------444444-111111---------------444444-666-666-|

|---------------------------------------------------------|
|---------------------------------------------------------|
|---------------------------------------------------------|
|-888888--------888888--------555555-888888---------------|
|-666666-666666-666666-666666-333333-666666-666666-555555-|
|--------444444--------444444---------------444444-333333-|

Repeat Intro

Verse 2
E------------------------------------------------------------|
B------------------------------------------------------------|
G------------------------------------------------------------|
D-5-33-5--33-5555555555555-------------------555555355355555-|
A-3-11-3--11-3333333333333-66666666-33333333-333333133133333-|
E--------------------------44444444-11111111-----------------|

|-------------------|
|-------------------|
|-------------------|
|-------------------|
|-66666666-33333333-|
|-44444444-11111111-|

Repeat Verse 1 Part 2
Repeat Chorus
Repeat Intro

*There are palm mutes in the verses, but it's easier to figure the muting yourself*
Merci =] Lauren x
            
Submit corrections

comments powered by Disqus
↑ Back to top | Zombina And The Skeletones Tabs for Nobody Likes You When Youre Dead. Lyrics for acoustic guitar and electric guitar. Tablatures and chords are parodies/interpretations of the original songs. You may use it for private study, scholarship, research or language learning purposes only