» » »

Draculas Tangp Tabs (ver.1)

Artists:  A B C D E F G H I J K L M N O P Q R S T U V W X Y Z # 

Draculas Tangp Tabs (ver.1)

Zombina And The Skeletones
Rating:
0/5 (0 votes)

Hard to play? Try these video lessons and learn fast.
                (Intro)
			     Dracula's Tango - Zombina and the Skeletones

Tuning: Standard

e|---------------------------------------------|
B|----------10--10--10--------10b12r10---------|
G|---9--12-------------9--12------------12--9--|
D|---------------------------------------------|
A|---------------------------------------------|
E|---------------------------------------------|

e|---------------------------------------------------------------------------------------|
B|---------------------------------------------------------------------------------------|
G|---7--9---7--7--7---9--7---------------------------------------------------------------|
D|---------------------------pb10r9--7--7~~----------------------------------------------|
A|---------------------------------------------------------------------------------------|
E|---------------------------------------------------------------------------------------|

Keep it quite stacato, and it sounds boss.
I'm a sucker for your love.

e
| /  slide up
| \  slide down
| h  hammer-on
| p  pull-off
| ~  vibrato
| +  harmonic
| x  Mute note
Pb = pre bend
b= bend
r = release.
            
Hard to play? Try these video lessons and learn fast. | Correct




comments powered by Disqus
↑ Back to top | Tablatures and chords are parodies/interpretations of the original songs. You may use it for private study, scholarship, research or language learning purposes only