» » »

Braindead Tabs (ver.1)

Artists:  A B C D E F G H I J K L M N O P Q R S T U V W X Y Z # 

Braindead Tabs (ver.1)

Zombina And The Skeletones
Rating:
5/5 (1 vote)

Hard to play? Try these video lessons and learn fast.
                Zombina And The Skeletones
Braindead (Guitar tab)

* = palm mute
~ = let ring

Verse
E---------------------------------------------------------------------|
B---------------------------------------------------------------------|
G-55555555555555------------------------------------------------------|  x3
D-55555555555555---77777777777777---33333333333333---55555555555555---|
A-33333333333333---77777777777777---33333333333333---55555555555555---|
E------------------55555555555555---11111111111111---33333333333333---|
   ****** ** **     ****** ** **     ****** ** **     ****** ** **


E------------------------------------------------------------------------|
B------------------------------------------------------------------------|
G-55555555555555---------------------------------------------------------|
D-55555555555555---77777777777777---33333333333333---55555555-55555555---|
A-33333333333333---77777777777777---33333333333333---55555555-55555555---|
E------------------55555555555555---11111111111111---33333333-33333333---|
   ****** ** **     ****** ** **     ****** ** **

chorus (0:42)
E-------------------|
B-------------------|
G-555555------------|  x3
D-555555---333333---|
A-333333---333333---|
E----------111111---|

E--------------------|
B--------------------|
G-555555-------------|
D-555555---5555555---|
A-333333---5555555---|
E----------3333333---|


Repeat verse (0:52)
Repeat chorus (1:13)

solo (1:23)
E----------------------|
B----------------------|
G-55-------------------|
D-55--7777------5555---|  x3
A-33--7777--33--5555---|
E-----5555--11--3333---|

E--------------------|
B--------------------|
G-555555-------------|
D-555555---5555555---|
A-333333---5555555---|
E----------3333333---|

3rd chorus (1:34)
E----------------------|
B----------------------|
G-55-------------------|
D-55--7777------5555---|  x3
A-33--7777--33--5555---|
E-----5555--11--3333---|

E--------------------|
B--------------------|
G-555555-------------|
D-555555---5555555---|
A-333333---5555555---|
E----------3333333---|

then... (1:44)
E---------------------------|
B---------------------------|
G-55------------------------|
D-55--5555--7777--3333------|  x3
A-33--5555--7777--3333------|
E-----3333--5555--1111------|

E--------------------|
B--------------------|
G-555555-------------|
D-555555---5555555---|
A-333333---5555555---|
E----------3333333---|

end on
E-----
B-----
G-5~--
D-5~--
A-3~--
E-----
            
Hard to play? Try these video lessons and learn fast. | Correct




comments powered by Disqus
↑ Back to top | Tablatures and chords are parodies/interpretations of the original songs. You may use it for private study, scholarship, research or language learning purposes only