» » »

Zombies, Time Of The Season Bass tabs (ver.1)

Artists:  A B C D E F G H I J K L M N O P Q R S T U V W X Y Z # 

Time Of The Season Bass tabs (ver.1)

Zombies Tabs
 Rating:
4/5 (7 votes)
Time Of The Season lessons Tabs too difficult? Try these video lessons and learn fast
1
                
 

Tuning:EADG


   Intro, Verse (0:00)
G|---------------------------------------------------|
D|---------------------------------------------------|
A|----5-7-7~----5-7-7~----5-7-7~----5-7-7~----5-7-7~-|
E|--7---------7---------7---------7---------7--------|

G|------------------------------------------------------------------|
D|------------------------------------------------------------------|
A|---5-7-7~--5---------5-7-7~----5-7-7~----5-7-7~--5---------5-7-7~-|
E|-7-----------8-8~--7---------7---------7-----------8-8~--7--------|


  Chorus (0:24)
G|----------------------------------------------------------|
D|--5--5--5-5-------------5--5--5-5-------------------------|
A|-------------7--7--7-7-------------7--7-5-----------------|
E|------------------------------------------8---------------|


   Verse (0:42)
G|--------------------------------------------------------------------|
D|--------------------------------------------------------------------|
A|----5-7-7~----5-7-7~----5-7-7~----5-7-7~----5-7-7~------------------|
E|--7---------7---------7---------7---------7-------------------------|

G|--------------------------------------------------------------------|
D|--------------------------------------------------------------------|
A|---5-7-7~--5---------5-7-7~----5-7-7~----5-7-7~--5---------5-7-7~---|
E|-7-----------8-8~--7---------7---------7-----------8-8~--7----------|


  Chorus (1:06)
G|----------------------------------------------------------|
D|--5--5--5-5-------------5--5--5-5-------------------------|
A|-------------7--7--7-7-------------7--7-5-----------------|
E|------------------------------------------8---------------|


   Interlude (1:22)
G|------------------------------------------------|
D|----------9-----------9----------5-----------9--|2x
A|--------7--7--------7--7--2-5--3--3--------7--7-|
E|--7-10--------7-10-------------------7-10-------|
                  
G|---------------------------------------------------------------------|
D|-------9----9-------------9---9------------------------------7~-9~---|1x
A|---------7---7---7---7------7--7---7---7-----------------------------|
E|-7-10--------------5--5--------------5--5---8--3-8---7--2-7----------|


  
  Verse (1:54)
G|-------------------------------------------------------------------|
D|-------------------------------------------------------------------|
A|----5-7-7~----5-7-7~----5-7-7~----5-7-7~----5-7-7~-----------------|
E|--7---------7---------7---------7---------7------------------------|

G|-------------------------------------------------------------------|
D|-------------------------------------------------------------------|
A|---5-7-7~--5---------5-7-7~----5-7-7~----5-7-7~--5---------5-7-7~--|
E|-7-----------8-8~--7---------7---------7-----------8-8~--7---------|
 

  Chorus (2:19)
G|----------------------------------------------------------|
D|--5--5--5-5-------------5--5--5-5-------------------------|
A|-------------7--7--7-7-------------7--7-5-----------------|
E|------------------------------------------8---------------|


 Interlude 2 (2:35)
G|------------------------------------------------|
D|----------9-----------9----------5-----------9--|
A|--------7--7--------7--7--2-5--3--3--------7--7-|
E|--7-10--------7-10-------------------7-10-------|


~hold note
            
Submit corrections

comments powered by Disqus
↑ Back to top | Zombies Bass for Time Of The Season. Lyrics for acoustic guitar and electric guitar. 1 Tablatures and chords are parodies/interpretations of the original songs. You may use it for private study, scholarship, research or language learning purposes only