» » »

She's Not There Bass tabs (ver.1)

Artists:  A B C D E F G H I J K L M N O P Q R S T U V W X Y Z # 

She's Not There Bass tabs (ver.1)

Zombies
Rating:
0/5 (0 votes)

Hard to play? Try these video lessons and learn fast.
                The Zombies

She's not there


I've tabbed this song in figures to make it easier to understand,
there are a few crazy chops in there which I'll do separately so 
you wont get confused. Listen to the Tune for timing.

      Fig 1:                              Fig 2:
G|-2-|------------| x6                 G|----------| Play this the 7th time
D|---|--2---0-4-2-| Only play the high D|----2-3-2-| then fig 1 three times 
A|---|0---0-------| A at the start.    A|0-3-------| then this again & fig 1 
E|---|------------|                    E|----------| just before the chorus.

  Fig 3: 
G|-------------------------------------------------------------
D|4-4-3-3-------2----2--2---2--------2----2-4-4-3-2------------
A|--------0---3---3-------2---2-0--3----3-----------3-3-3-5/7^-
E|------------------------------------------------------------0

 -------------------------------|
 -------------------------------|
 -------------------------------|
 -0-0-0-0-0-0-0-0-0-0-0-0-0-0-0-|

  Fig 4:
G|---------------------------------------------------------------
D|------------------------------------7---------4-----7----------
A|0-0-0-0-5-5-9/7-0-0-0-0-8-8-8-7-0-0---0-5-5-5---0-0---0-8-8-8-7
E|---------------------------------------------------------------
				       Crazy end bit!:
 -----------------------------------|---------------|
 -------------4-4-------------------|----2-0---2----|
 -0-0-0-0-5-5-----0-0-0-0-0-0-0-0-0-|0-3-----3---3-0| 
 -----------------------------------|---------------| 

 Play fig 1 again 6x followed by fig 2 then fig 1 3x then fig 2 
 and fig 1 one more time more time. 

 This is sometimes played in  G|--------------|
 fig 1 second time round:     D|--2---0-4-2-4-|
                              A|0---0---------|
			      E|--------------|
 
 Now play Fig 3 followed by fig 4 without the crazy end bit and  
 pause before the Keyboard solo.

 For the solo play   G|--------------2^--------------------------------|
 fig 1 six times     D|--2---0-4-2-------------------------------------|
 then play this:     A|0---0-------0---0-0-0-0-0-0-0-0-0-0-0-0-0-0-0-0-|
                     E|------------------------------------------------|

 To end just play Fig 3 and Fig 4.


 Comments, corrections, death threats etc. to:
            
Hard to play? Try these video lessons and learn fast. | Correct




comments powered by Disqus
↑ Back to top | Tablatures and chords are parodies/interpretations of the original songs. You may use it for private study, scholarship, research or language learning purposes only