» » »

Zombie Ghost Train, Zombie Beach Tabs (ver.2)

Artists:  A B C D E F G H I J K L M N O P Q R S T U V W X Y Z # 

Zombie Beach Tabs (ver.2)

Zombie Ghost Train Tabs
Rating:
0/5 (0 votes)
Zombie Beach lessons Tabs too difficult? Try these video lessons and learn fast
                			     SONG NAME - Band Name

Tuning: Standard

e|--------------------------------------------------------------------------------------------|
B|--------------------------------------------------------------------------------------------|
G|-------------------------------------4-4-4-5------------------------------------------------|
D|-----------2-3-2-------------------5-5-5-6-----------2-3-2-------------------------2--------|
A|-0-0-0-3-------------------2-3-2-5-5-5-6-0-0-0-3------------------2-3-2--0--3---------2--0--|
E|-------------------0-0-0-3---------3-3-3-4------------------0-0-0-3-----------------0--3----|

e|---------------------------------------------------------------------------------|
B|---------------------------------------------------------------------------------|
G|---------------------------------------------------------------------------------|
D|---------------------------------------------------------------------------------|
A|--------------------------------2-2-3-3-0----------------------------------------|
E|-3-3-3-3-3-3-3-3-3-3-3-3--------------0-0-0-0-0-0-0-0-0-0-0-0--------------------|

e|-----------------------------------------------------------------------------|
B|-----------------------------------------------------------------------------|
G|-----------------------------------------------------------------------------|
D|-----------------------------------------------------------------------------|
A|----------------------------------2-2-3-3-0-0-0-0-0-0-0-0-0-0----------------|
E|-3-3-3-3-3-3-3-3-3-3-3-3-3---------------------------------------------------|

e|-----------------------------------------------------------------------------|
B|-----------------------------------------------------------------------------|
G|-----------------------------------------------------------------------------|
D|-----------------------------------------------------------------------------|
A|-----------------------------------------------------------------------------|
E|-1-1-1-1-1-1-1-1-1-1-3-3-3-3-3-3-3-3-3---------------------------------------|

repeat over intro

e|-------------------12-13-12--------------------------------------------------|
B|--10-10-10-13--------------------------12-13-12------------------------------|
G|-------------------------------9-9-9-12--------------12-12-12-13-------------|
D|-----------------------------------------------------------------------------|
A|-----------------------------------------------------------------------------|
E|-----------------------------------------------------------------------------|

e|------------------12-13-12---------------------------------------12----------|
B|-10-10-10-13-------------------------12-13-12-----10--13----------------10---|
G|------------------------------9-9-9-12--------------------------------9--12--|
D|-----------------------------------------------------------------------------|
A|-----------------------------------------------------------------------------|
E|-----------------------------------------------------------------------------|


| /  slide up
| \  slide down
| h  hammer-on
| p  pull-off
| ~  vibrato
| +  harmonic
| x  Mute note
|
            

comments powered by Disqus
↑ Back to top | Zombie Ghost Train Tabs for Zombie Beach. Lyrics for acoustic guitar and electric guitar. Tablatures and chords are parodies/interpretations of the original songs. You may use it for private study, scholarship, research or language learning purposes only