» » »

Zombie Ghost Train, Graveyard Queen Tabs (ver.1)

Artists:  A B C D E F G H I J K L M N O P Q R S T U V W X Y Z # 

Graveyard Queen Tabs (ver.1)

Zombie Ghost Train Tabs
 Rating:
4.3/5 (6 votes)
Graveyard Queen lessons Tabs too difficult? Try these video lessons and learn fast
                 Intro - strum the chords out long and let ring
e|---4------------4----6---|
B|---4------------5----8---|
G|---4------------6----8---|
D|---6------------6----8---| x 4
A|---6------------4----6---|
E|---4---------------------|
   

Verse
    G#m              C#m      Eb
e|--4-4-4-4-4-4-4-4--4-4-4-4--6-6-6-6---|
B|--4-4-4-4-4-4-4-4--5-5-5-5--8-8-8-8---|
G|--4-4-4-4-4-4-4-4--6-6-6-6--8-8-8-8---|
D|--6-6-6-6-6-6-6-6--6-6-6-6--8-8-8-8---| x 2
A|--6-6-6-6-6-6-6-6--4-4-4-4--6-6-6-6---|
E|--------------------------------------|

    G#m              B                C#               Eb7
e|--4-4-4-4-4-4-4-4--2-2-2-2-2-2-2-2--4-4-4-4-4-4-4-4----------6--7---6---6--|
B|--4-4-4-4-4-4-4-4--4-4-4-4-4-4-4-4--6-6-6-6-6-6-6-6------8---8--8---8---8--|
G|--4-4-4-4-4-4-4-4--4-4-4-4-4-4-4-4--6-6-6-6-6-6-6-6--9---8---8--8---8---8--|
D|--6-6-6-6-6-6-6-6--4-4-4-4-4-4-4-4--6-6-6-6-6-6-6-6--8---8---8--8---8---8--| 
A|--6-6-6-6-6-6-6-6--2-2-2-2-2-2-2-2--4-4-4-4-4-4-4-4--6---6----------6---6--|
E|---------------------------------------------------------------------------|
  
Repeat entire verse again

Chorus
e|--4-4-4-4-4-4-4-4--4-4-4-4-4-4-4-4--4-4-4-4-4-4-4-4--4-4-4-4-4-4-4-4----|
B|--5-5-5-5-5-5-5-5--4-4-4-4-4-4-4-4--5-5-5-5-5-5-5-5--4-4-4-4-4-4-4-4----|
G|--6-6-6-6-6-6-6-6--4-4-4-4-4-4-4-4--6-6-6-6-6-6-6-6--4-4-4-4-4-4-4-4----|
D|--6-6-6-6-6-6-6-6--6-6-6-6-6-6-6-6--6-6-6-6-6-6-6-6--6-6-6-6-6-6-6-6----|
A|--4-4-4-4-4-4-4-4--6-6-6-6-6-6-6-6--4-4-4-4-4-4-4-4--6-6-6-6-6-6-6-6----|
E|-------------------4-4-4-4-4-4-4-4-------------------4-4-4-4-4-4-4-4----|
 My graveyard queen, she's... etc.

e|------------------6-6-6-6-6----|
B|----------8-8-8-8-8-8-8-8-8----|
G|--6-6-6-6-6-6-6-6-6-6-6-6-6----|
D|--8-8-8-8-8-8-8-8-8-8-8-8-8----|
A|--6-6-6-6-6-6-6-6-6-6-6-6-6----|
E|-------------------------------|
MY baby     (baby,  baby)

    G#m              C#m      Eb
e|--4-4-4-4-4-4-4-4--4-4-4-4--6----|
B|--4-4-4-4-4-4-4-4--5-5-5-5--8----|
G|--4-4-4-4-4-4-4-4--6-6-6-6--8----|
D|--6-6-6-6-6-6-6-6--6-6-6-6--8----| 
A|--6-6-6-6-6-6-6-6--4-4-4-4--6----|
E|---------------------------------|

Solo
e|--4--4-4--4-4-7--7-7--7-7-4--4-4--4-4-4~----4--4-4--4-4-7--7-7--7-7-4--4-4--4-4-4~-----|
B|--4--4-4--4-4-7--7-7--7-7-5--5-5--5-5-4~----4--4-4--4-4-7--7-7--7-7-5--5-5--5-5-4~-----|
G|-------------------------------------------------------------------------------------4-|
D|-----------------------------------------------------------------------------------6---|
A|---------------------------------------------------------------------------------------|
E|---------------------------------------------------------------------------------------|

e|-----------------------------------4--4-4--4-4-7--7-7--7-7-4--4-4--4-4-4~-----|
B|-----------------------------------4--4-4--4-4-7--7-7--7-7-5--5-5--5-5-5~-----|
G|--6--6-4-6/8-6-4--6--6-4-6/8-6-4--------------------------------------------4-|
D|--------------------------------------------------------------------------6---|
A|------------------------------------------------------------------------------|
E|------------------------------------------------------------------------------|


e|------------------------------------------------5--5-5--5-5--8--8-8--8-8--11~--|
B|-----------------------------------7--7-7--7-7--7--7-7--7-7--7--7-7--7-7--13~--|
G|--6--6-4-6/8-6-4--6--6-4-6/8-6-4---5--5-5--5-5--5--5-5--5-5--5--5-5--5-5--11~--|
D|-----------------------------------7--7-7--7-7--7--7-7--7-7--7--7-7--7-7-------|
A|-----------------------------------6--6-6--6-6--6--6-6--6-6--------------------|
E|-------------------------------------------------------------------------------|

Post-Chorus
    G#m              B                C#
e|--4-4-4-4-4-4-4-4--2-2-2-2-2-2-2-2--4-4-4-4-4-4-4-4----------6--7---6---6--|
B|--4-4-4-4-4-4-4-4--4-4-4-4-4-4-4-4--6-6-6-6-6-6-6-6------8---8--8---8---8--|
G|--4-4-4-4-4-4-4-4--4-4-4-4-4-4-4-4--6-6-6-6-6-6-6-6--9---8---8--8---8---8--|
D|--6-6-6-6-6-6-6-6--4-4-4-4-4-4-4-4--6-6-6-6-6-6-6-6--8---8---8--8---8---8--| 
A|--6-6-6-6-6-6-6-6--2-2-2-2-2-2-2-2--4-4-4-4-4-4-4-4--6---6----------6---6--|
E|---------------------------------------------------------------------------|

Verse
    G#m              C#m      Eb
e|--4-4-4-4-4-4-4-4--4-4-4-4--6-6-6-6---|
B|--4-4-4-4-4-4-4-4--5-5-5-5--8-8-8-8---|
G|--4-4-4-4-4-4-4-4--6-6-6-6--8-8-8-8---|
D|--6-6-6-6-6-6-6-6--6-6-6-6--8-8-8-8---| x 2
A|--6-6-6-6-6-6-6-6--4-4-4-4--6-6-6-6---|
E|--------------------------------------|

    G#m              B                C#               Eb7
e|--4-4-4-4-4-4-4-4--2-2-2-2-2-2-2-2--4-4-4-4-4-4-4-4----------6--7---6---6--|
B|--4-4-4-4-4-4-4-4--4-4-4-4-4-4-4-4--6-6-6-6-6-6-6-6------8---8--8---8---8--|
G|--4-4-4-4-4-4-4-4--4-4-4-4-4-4-4-4--6-6-6-6-6-6-6-6--9---8---8--8---8---8--|
D|--6-6-6-6-6-6-6-6--4-4-4-4-4-4-4-4--6-6-6-6-6-6-6-6--8---8---8--8---8---8--| 
A|--6-6-6-6-6-6-6-6--2-2-2-2-2-2-2-2--4-4-4-4-4-4-4-4--6---6----------6---6--|
E|---------------------------------------------------------------------------|


Chorus
e|--4-4-4-4-4-4-4-4--4-4-4-4-4-4-4-4--4-4-4-4-4-4-4-4--4-4-4-4-4-4-4-4----|
B|--5-5-5-5-5-5-5-5--4-4-4-4-4-4-4-4--5-5-5-5-5-5-5-5--4-4-4-4-4-4-4-4----|
G|--6-6-6-6-6-6-6-6--4-4-4-4-4-4-4-4--6-6-6-6-6-6-6-6--4-4-4-4-4-4-4-4----|
D|--6-6-6-6-6-6-6-6--6-6-6-6-6-6-6-6--6-6-6-6-6-6-6-6--6-6-6-6-6-6-6-6----|
A|--4-4-4-4-4-4-4-4--6-6-6-6-6-6-6-6--4-4-4-4-4-4-4-4--6-6-6-6-6-6-6-6----|
E|-------------------4-4-4-4-4-4-4-4-------------------4-4-4-4-4-4-4-4----|
 My graveyard queen, she's... etc.

e|------------------6-6-6-6-6----|
B|----------8-8-8-8-8-8-8-8-8----|
G|--6-6-6-6-6-6-6-6-6-6-6-6-6----|
D|--8-8-8-8-8-8-8-8-8-8-8-8-8----|
A|--6-6-6-6-6-6-6-6-6-6-6-6-6----|
E|-------------------------------|
MY baby     (baby,  baby)


    G#m              C#m      Eb
e|--4-4-4-4-4-4-4-4--4-4-4-4--6----|
B|--4-4-4-4-4-4-4-4--5-5-5-5--8----|
G|--4-4-4-4-4-4-4-4--6-6-6-6--8----|
D|--6-6-6-6-6-6-6-6--6-6-6-6--8----| x 3 
A|--6-6-6-6-6-6-6-6--4-4-4-4--6----|
E|---------------------------------|


Chorus
e|--4-4-4-4-4-4-4-4--4-4-4-4-4-4-4-4--4-4-4-4-4-4-4-4--4-4-4-4-4-4-4-4----|
B|--5-5-5-5-5-5-5-5--4-4-4-4-4-4-4-4--5-5-5-5-5-5-5-5--4-4-4-4-4-4-4-4----|
G|--6-6-6-6-6-6-6-6--4-4-4-4-4-4-4-4--6-6-6-6-6-6-6-6--4-4-4-4-4-4-4-4----|
D|--6-6-6-6-6-6-6-6--6-6-6-6-6-6-6-6--6-6-6-6-6-6-6-6--6-6-6-6-6-6-6-6----|
A|--4-4-4-4-4-4-4-4--6-6-6-6-6-6-6-6--4-4-4-4-4-4-4-4--6-6-6-6-6-6-6-6----|
E|-------------------4-4-4-4-4-4-4-4-------------------4-4-4-4-4-4-4-4----|
 My graveyard queen, she's... etc.

e|--6-----|
B|--8-----|
G|--6-----|
D|--8-----|
A|--6-----|
E|--------|
MY baby     (baby,  baby)


    G#m              C#m      Eb
e|--4-4-4-4-4-4-4-4--4-4-4-4--6-6-6-6---|
B|--4-4-4-4-4-4-4-4--5-5-5-5--8-8-8-8---|
G|--4-4-4-4-4-4-4-4--6-6-6-6--8-8-8-8---|
D|--6-6-6-6-6-6-6-6--6-6-6-6--8-8-8-8---| x 3
A|--6-6-6-6-6-6-6-6--4-4-4-4--6-6-6-6---|
E|--------------------------------------|



    G#m              C#m      Eb     G#m
e|--4-4-4-4-4-4-4-4--4--------6------4---|
B|--4-4-4-4-4-4-4-4--5--------8------4---|
G|--4-4-4-4-4-4-4-4--6--------8------4---|
D|--6-6-6-6-6-6-6-6--6--------8------6---| 
A|--6-6-6-6-6-6-6-6--4--------6------6---|
E|---------------------------------------|
            
Submit corrections

comments powered by Disqus
↑ Back to top | Zombie Ghost Train Tabs for Graveyard Queen. Lyrics for acoustic guitar and electric guitar. Tablatures and chords are parodies/interpretations of the original songs. You may use it for private study, scholarship, research or language learning purposes only