>
 >
Glad Rags Body Bags

Glad Rags Body Bags Guitar Tabs

Zombie Ghost Train - Glad Rags Body Bags chords, tabs, tablatures, lyrics

Guitar lessons | Add/correct | Request | Top 50 tabs Artists:  A B C D E F G H I J K L M N O P Q R S T U V W X Y Z 0-9

Glad Rags Body Bags Guitar Tabs – Zombie Ghost Train

CD, Sheet music, Poster

Do you like Glad Rags Body Bags? Share with your friends now
Tabs
Hey first tab, this is actually my friends tab but im going to say I did it. So yeh a
of picking strings and hammering on them anyways enjoy.

Oh and Zombie Ghost Train are better then your band.

Riff A
e----------------------------------------------------------------------|
b----------------------------------------------------------------------|
g------------------------------------------------------------      x 4-|
d------------2-----------1-------------2-2-2p1p0-----------------------|
a------1h3--------1h3----------1h3----------------0--------------------|
E----------------------------------------------------------------------|

Riff B
e-----------------------------------------------------------------|
b-----------------------------------------------------------------|
g-------------2----------1--------------2-2-2p1p0-----------------|
d-------------------------------------------------------0---------|
a------3h5--------3h5----------3h5--------------------------------|
E-----------------------------------------------------------------|

Riff A
e----------------------------------------------------------------------|
b----------------------------------------------------------------------|
g------------------------------------------------------------      x 4-|
d------------2-----------1-------------2-2-2p1p0-----------------------|
a------1h3--------1h3----------1h3----------------0--------------------|
E----------------------------------------------------------------------|

Riff C
e------------------------------------------------------------------------|
b------------------------------------------------------------------------|
g------------------------------------------------------------------------|
d------2-------2--2----2---2----2--2----2--2---2--2----2----2------------|
a------2-------2--2----2---2----2--2----2--2---2--2----2----2------------|
E--------------0--0----3---3----0--0----3--3---0--0----3----0------------|


e------------------------------------------------------------------------|
b------------------------------------------------------------------------|
g------------2--2----2---2----2--2----2--2---2--2----2----2--------------|
d------------2--2----2---2----2--2----2--2---2--2----2----2--------------|
a------------0--0----3---3----0--0----3--3---0--0----3----0--------------|
E------------------------------------------------------------------------|


e--------------------------------------------0---------0~--------------------|
b--------------------------------------------0---------0~--------------------|
g------------2-----3----4----5-------------0---------0~----------------------|
d------------2-----3----4----5-------2---------------2~----------------------|
a------------0-----1----2----3-------2---------------2~----------------------|
e--------------------------------------0---------------0~--------------------|


Guitar 1

Riff A2
e------------------------------------------------------------------------|
b------------------------------------------------------------------------|
g-------------4-------------3-------------4-4----------------2~----------|
d-------------2-------------1-------------2-2----2p1p0-----2~------------|
a---1h3------------1h3-----------1h3-----------------------0~------------|
E------------------------------------------------------------------------|


Riff B2
e------------------------------------------------------------------|
b--------------------------------------------------------------1~--|
g-------------9-------------8----------------9-9--------------2~---|
d-------------7-------------6----------------7-7---7p6p0----2~-----|
a------------------------------------------------------------------|
E---8h10----------8h10---------8h10--------------------------------|

Riff A2
e------------------------------------------------------------------------|
b------------------------------------------------------------------------|
g-------------4-------------3-------------4-4----------------2~----------|
d-------------2-------------1-------------2-2----2p1p0-----2~------------|
a---1h3------------1h3-----------1h3-----------------------0~------------|
E------------------------------------------------------------------------|

Riff C
e------------------------------------------------------------------------|
b------------------------------------------------------------------------|
g------------------------------------------------------------------------|
d------2-------2--2----2---2----2--2----2--2---2--2----2----2------------|
a------2-------2--2----2---2----2--2----2--2---2--2----2----2------------|
E--------------0--0----3---3----0--0----3--3---0--0----3----0------------|


e------------------------------------------------------------------------|
b------------------------------------------------------------------------|
g------------2--2----2---2----2--2----2--2---2--2----2----2--------------|
d------------2--2----2---2----2--2----2--2---2--2----2----2--------------|
a------------0--0----3---3----0--0----3--3---0--0----3----0--------------|
E------------------------------------------------------------------------|


e--------------------------------------------0---------0~--------------------|
b--------------------------------------------0---------0~--------------------|
g------------2-----3----4----5-------------0---------0~----------------------|
d------------2-----3----4----5-------2---------------2~----------------------|
a------------0-----1----2----3-------2---------------2~----------------------|
e--------------------------------------0---------------0~--------------------|

Guitar II (comes in at riff A2)

e---------------------------------------------|
b---------------------------------------------|
g------------14-------------------14----------|
d------------14-- x6--------------14---x7-----|
a------------12---------11/12----12-----------|
e---------------------------------------------|

e------------5-----4-------5----7~------------------|
b------------6-----6-------6----8~------------------|
g------------7-----6-------7----9~------------------|
d-------------- ------------------------------------|
a---------------------------------------------------|
e---------------------------------------------------|

e---------------------------------------------|
b---------------------------------------------|
g------------14-------------------14----------|
d------------14-- x6--------------14---x7-----|
a------------12---------11/12----12-----------|
e---------------------------------------------|

e---------------12----------------12-----------------------|
b---------------------13---------------13------------------|
g----------14-------------14----------------14-------------|
d----------------------------------------------------------|
a----------------------------------------------------------|
e----------------------------------------------------------|

e---------------10----------------10-----------------------|
b---------------------11---------------11------------------|
g----------10-------------10----------------10-------------|
d----------------------------------------------------------|
a----------------------------------------------------------|
e----------------------------------------------------------|

e--------------------------------------------8----------7~-------------------|
b--------------------------------------------9----------9~-------------------|
g------------2-----3----4----5-------------10---------9~---------------------|
d------------2-----3----4----5-----------------------------------------------|
a------------0-----1----2----3-----------------------------------------------|
e----------------------------------------------------------------------------|


Breakdown

e------------7~--------7----------------------10~------12---10------------12---10---------------7~-----|
b------------8~-----------8-------------------12~-----------------10------------------10---------8~----|
g------------9~--------------9----------------12~--------------------------------------------------9~--|
d------------9~------------------9------------12~--------------------------------------------------9~--|
a------------------------------------------------------------------------------------------------------|
e------------------------------------------------------------------------------------------------------|

e-------------14----12--------------14-----12-------------12-----10--------------12---10--------------7~-----------------------|
b--------------------------12----------------------12----------------------10------------------10--------8~-------12----11-----|
g-----------------------------------------------------------------------------------------------------------9~-------12----11--|
d-----------------------------------------------------------------------------------------------------------9~-------10----9---|
a------------------------------------------------------------------------------------------------------------------------------|
e------------------------------------------------------------------------------------------------------------------------------|

Verse Thing Again

e---------------------------------------------|
b---------------------------------------------|
g------------14-------------------14----------|
d------------14-- x6--------------14---x7-----|
a------------12---------11/12----12-----------|
e---------------------------------------------|

e------------5-----4-------5----7~------------------|
b------------6-----6-------6----8~------------------|
g------------7-----6-------7----9~------------------|
d-------------- ------------------------------------|
a---------------------------------------------------|
e---------------------------------------------------|

e---------------------------------------------|
b---------------------------------------------|
g------------14-------------------14----------|
d------------14-- x4--------------14---x3-----|
a------------12---------11/12----12-----------|
e---------------------------------------------|

e---------------12----------------12-----------------------|
b---------------------13---------------13------------------|
g----------14-------------14----------------14-------------|
d----------------------------------------------------------|
a----------------------------------------------------------|
e----------------------------------------------------------|

e---------------10----------------10-----------------------|
b---------------------11---------------11------------------|
g----------10-------------10----------------10-------------|
d----------------------------------------------------------|
a----------------------------------------------------------|
e----------------------------------------------------------|

Guitar 1
e---------------------------------------------------------------------|
b---------------------------------------------------------------------|
g-----------------------------------------------------2~--------------|
d------------2--------------1------------1---0------2~----------------|
a-----1h3----------1h3----------1h3---------------0~------------------|
e---------------------------------------------------------------------|

Guitar 2

e------------------------------------------------------------7~-----------|
b------------------------------------------------------------8~-----------|
g------------------------------------------------------------9~-----------|
d------------2--------------1------------1---0-------------9~-------------|
a-----1h3----------1h3----------1h3----------------------7~---------------|
e------------------------------------------------------------7~-----------|

Done and Done, took me a while but it was worth it. comments are always welcome





Comments


Popular Zombie Ghost Train tabs & chords
Long Dark Night Chords
Devil Child Tabs
Devil Child Intro Tabs
Graveyard Queen Tabs
Rip Intro Tabs
Rip Intro 1 Tabs
Teddy Boy Boogie Tabs
Zombie Beach Intro Tabs
Monster Rock N Roll Ukulele
Rip Ukulele


Song lyrics



↑ Back to top | Tablatures and chords are parodies/interpretations of the original songs. You may use it for private study, scholarship, research or language learning purposes only
© 2014 AZChords.com Contact us | Privacy policy | DMCA | Add/correct tabs | Request tabs | Top 50 tabs