» » »

The Way It Goes Tabs (ver.1)

Artists:  A B C D E F G H I J K L M N O P Q R S T U V W X Y Z # 

The Way It Goes Tabs (ver.1)

Zolof The Rock And Roll Destroyer
Rating:
0/5 (0 votes)

Hard to play? Try these video lessons and learn fast.
                -------------------------------------------------------------------------------
                           The Way It Goes - Zolof The Rock & Roll Destroyer
-------------------------------------------------------------------------------

Tuning:Standard


Intro:

e|-----------------------------------------------|
B|-----------------------------------------------|
G|---9-9-9---------------------------------------|
D|---9-9-9--9--11-11-9\----7-7-7-9-9-9-----------| X3
A|---7-7-7--9--11-11-9\----7-7-7-9-9-9-----------|
E|----------7--9--9--7\----5-5-5-7-7-7-----------|



Verse 1:

e|-------------------------------------------|
B|-------------------------------------------|
G|-------------------------------------------|
D|-------------------9-------9---------------|
A|---6-------7-------7--x8---6--x8-----------|
E|---4--x8---5--x8---------------------------|

e|-------------------------------------------|
B|-------------------------------------------|
G|-------------------------------------------|
D|-------------------9-------11--------------|
A|---6-------7-------7--x8---9--x8-----------|
E|---4--x8---5--x8---------------------------|




Chorus 1:

e|-----------------------------------------------|
B|-----------------------------------------------|
G|---9-9-9---------------------------------------|
D|---9-9-9--9--11-11-9\----7-7-7-9-9-9-----------| X4
A|---7-7-7--9--11-11-9\----7-7-7-9-9-9-----------|
E|----------7--9--9--7\----5-5-5-7-7-7-----------|




Verse 2:

e|-------------------------------------------|
B|-------------------------------------------|
G|-------------------------------------------|
D|-------------------9-------9---------------|
A|---6-------7-------7--x8---6--x8-----------|
E|---4--x8---5--x8---------------------------|

e|-------------------------------------------|
B|-------------------------------------------|
G|-------------------------------------------|
D|-------------------9-------11--------------|
A|---6-------7-------7--x8---9--x8-----------|
E|---4--x8---5--x8---------------------------|



Chorus 2:

e|-----------------------------------------------|
B|-----------------------------------------------|
G|---9-9-9---------------------------------------|
D|---9-9-9--9--11-11-9\----7-7-7-9-9-9-----------| X4
A|---7-7-7--9--11-11-9\----7-7-7-9-9-9-----------|
E|----------7--9--9--7\----5-5-5-7-7-7-----------|



Bridge:

e|-----------------------------------------|
B|-----------------------------------------|
G|-----------------------------------------|
D|---11-11---11----------------------------| X7
A|---9--9----9--x14-palm muted-------------|
E|-----------------------------------------|

e|-----------------------------------------|
B|-----------------------------------------|
G|-----------------------------------------|
D|-----------------------------------------|
A|---4-4-5-5-6-6-7-7-8-8-9-10-11-----------|
E|---2-2-3-3-4-4-5-5-6-6-7-8--9------------|



Chorus 3:

e|---------------------------------------------------|
B|---------------------------------------------------|
G|---11-11-11----------------------------------------|
D|---11-11-11--11-13-13-11\---9-9-9-11-11-11---------| X8
A|---9--9--9---11-13-13-11\---9-9-9-11-11-11---------|
E|-------------9--11-11-9\----7-7-7-9--9--9----------|



Outro:

e|------------------------------------------------------------------------|
B|------------------------------------------------------------------------|
G|---11------------------------------------11-11-11-----------------------|
D|---11----11----9-----8-----4-------------11-11-11--11-13-13-11----------|
A|---9-----11----9-----8-----4-------------9--9--9---11-13-13-11----------|
E|---------9-----7-----6-----2-----------------------9--11-11-9-----------|





************************************

| /   slide up
| \   slide down
| h   hammer-on
| p   pull-off
| ~   vibrato
| +   harmonic
| x   Mute note
| b   Bend
| pb  Pre-bend
| br  Bend release
| pbr Pre-bend release
| brb Bend release bend

****************
            
Hard to play? Try these video lessons and learn fast. | Correct




comments powered by Disqus
↑ Back to top | Tablatures and chords are parodies/interpretations of the original songs. You may use it for private study, scholarship, research or language learning purposes only