» » »

Running Starts Will Only Get You Faster To The Place That Will Make You Say Ouch Tabs (ver.1)

Artists:  A B C D E F G H I J K L M N O P Q R S T U V W X Y Z # 

Running Starts Will Only Get You Faster To The Place That Will Make You Say Ouch Tabs (ver.1)

Zolof The Rock And Roll Destroyer
Rating:
0/5 (0 votes)

Hard to play? Try these video lessons and learn fast.
                        -------------------------------------------------------------------------------
    Running Starts Will Only Get You Faster To The Place That Will Make You Say Ouch   - 
Zolof The Rock & Roll Destroyer
-------------------------------------------------------------------------------

Tuning:Standard



Intro:

e|--------------------------------------------------------------------|
B|---4---2---4-----5---2--5-4-2------4---2---4----5---2--5-4-2--------|
G|-----3---4-4-------4----------3------3---4-4------4----------3-4----|
D|-----------4-------------------------------4------------------------|
A|-----------2-------------------------------2------------------------|
E|--------------------------------------------------------------------|



Verse: (these are also the chords played in the intro)

e|-------------------------------------------|
B|---4-----------5---------------------------|
G|---4-----1-----6-----3---------------------|
D|---4-----2-----6-----4---------------------|
A|---2-----2-----4-----4---------------------|
E|---------0-----------2---------------------|



Chorus:

e|-------------------------------------------|
B|---4-----5-----9---------------------------|
G|---4-----6-----9---------------------------|
D|---4-----6-----9---------------------------|
A|---2-----4-----7---------------------------|
E|-------------------------------------------|


Intro:

Verse:

Chorus:

Intro:



************************************

| /   slide up
| \   slide down
| h   hammer-on
| p   pull-off
| ~   vibrato
| +   harmonic
| x   Mute note
| b   Bend
| pb  Pre-bend
| br  Bend release
| pbr Pre-bend release
| brb Bend release bend

************************************
            
Hard to play? Try these video lessons and learn fast. | Correct




comments powered by Disqus
↑ Back to top | Tablatures and chords are parodies/interpretations of the original songs. You may use it for private study, scholarship, research or language learning purposes only