» » »

Zolof The Rock And Roll Destroyer, Ode To Madonna Tabs (ver.1)

Artists:  A B C D E F G H I J K L M N O P Q R S T U V W X Y Z # 

Ode To Madonna Tabs (ver.1)

Zolof The Rock And Roll Destroyer Tabs
 Rating:
4/5 (4 votes)
Ode To Madonna lessons Tabs too difficult? Try these video lessons and learn fast
                intro
e-------------------------------------|
b-------------------------------------|
g-----------------7--X--6--X--4--X-X--|
d---2--X-X--7--X--7--X--6--X--4--X-X--| (x4)
a---2--X-X--7--X--5--X--4--X--2--X-X--|
e---0--X-X--5--X-----------------X-X--|

pre verse
e-------------------------------------------|
b-------------------------------------------|
g-------------------------------------------|
d---2-2--X-X--7--X-X--X--X--X-X--X--X--X-X--| (x2)
a---2-2--X-X--7--X-X--X--X--X-X--X--X--X-X--|
e---0-0--X-X--5--X-X--X--X--X-X--X--X--X-X--|


verse
e-------------------------------------------|
b-------------------------------------------|
g-------------------------------------------|
d---2-2--X-X--7--X-X--X--X--X-X--X--X--X-X--| (x3)
a---2-2--X-X--7--X-X--X--X--X-X--X--X--X-X--|
e---0-0--X-X--5--X-X--X--X--X-X--X--X--X-X--|

on the 4th time of the verse end like this
e---------------------------------------|
b---------------------------------------|
g---------------------------------------|
d---2-2--X-X--7--X-X--7-7-7-7-----------|
a---2-2--X-X--7--X-X--7-7-7-7-----------|
e---0-0--X-X--5--X-X--5-5-5-5-----------|

chorus
e-------------------------------------|
b-------------------------------------|
g-----------------7--X--6--X--4--X-X--|
d---2--X-X--7--X--7--X--6--X--4--X-X--| (x4)
a---2--X-X--7--X--5--X--4--X--2--X-X--|
e---0--X-X--5--X-----------------X-X--|


pre verse
e-------------------------------------------|
b-------------------------------------------|
g-------------------------------------------|
d---2-2--X-X--7--X-X--X--X--X-X--X--X--X-X--| (x2)
a---2-2--X-X--7--X-X--X--X--X-X--X--X--X-X--|
e---0-0--X-X--5--X-X--X--X--X-X--X--X--X-X--|


verse
e-------------------------------------------|
b-------------------------------------------|
g-------------------------------------------|
d---2-2--X-X--7--X-X--X--X--X-X--X--X--X-X--| (x3)
a---2-2--X-X--7--X-X--X--X--X-X--X--X--X-X--|
e---0-0--X-X--5--X-X--X--X--X-X--X--X--X-X--|

on the 4th time of the verse end like this
e---------------------------------------|
b---------------------------------------|
g---------------------------------------|
d---2-2--X-X--7--X-X--7-7-7-7-----------|
a---2-2--X-X--7--X-X--7-7-7-7-----------|
e---0-0--X-X--5--X-X--5-5-5-5-----------|


chorus
e-------------------------------------|
b-------------------------------------|
g-----------------7--X--6--X--4--X-X--|
d---2--X-X--7--X--7--X--6--X--4--X-X--| (x4)
a---2--X-X--7--X--5--X--4--X--2--X-X--|
e---0--X-X--5--X-----------------X-X--|


bridge
e-------------------------------------------|
b-------------------------------------------|
g-------------------------------------------|
d---2-2--X-X--7--X-X--X--X--X-X--X--X--X-X--| (x3)
a---2-2--X-X--7--X-X--X--X--X-X--X--X--X-X--|
e---0-0--X-X--5--X-X--X--X--X-X--X--X--X-X--|

on the 4th time of the verse end like this
e---------------------------------------|
b---------------------------------------|
g---------------------------------------|
d---2-2--X-X--7--X-X--7-7-7-7-----------|
a---2-2--X-X--7--X-X--7-7-7-7-----------|
e---0-0--X-X--5--X-X--5-5-5-5-----------|


chorus
e-------------------------------------|
b-------------------------------------|
g-----------------7--X--6--X--4--X-X--|
d---2--X-X--7--X--7--X--6--X--4--X-X--| (x4)
a---2--X-X--7--X--5--X--4--X--2--X-X--|
e---0--X-X--5--X-----------------X-X--|

e------------------------------------------------------|
b------------------------------------------------------|
g--7-7-7-7-x-4----7-7-7-7-x-4-4-4-4-x-7-7-7-7-7-7-7-7--|
d--7-7-7-7-x-4----7-7-7-7-x-4-4-4-4-x-7-7-7-7-7-7-7-7--|
a--5-5-5-5-x-2----5-5-5-5-x-2-2-2-2-x-5-5-5-5-5-5-5-5--|
e------------------------------------------------------|

end - on bass
e----------------------------|
b----------------------------|
g----------------------------|
d----------------------------|  (x5)
a-------------5-5--4-x--2----|
d--0--x--5--x----------------|
            
Submit corrections

comments powered by Disqus
↑ Back to top | Zolof The Rock And Roll Destroyer Tabs for Ode To Madonna. Lyrics for acoustic guitar and electric guitar. Tablatures and chords are parodies/interpretations of the original songs. You may use it for private study, scholarship, research or language learning purposes only