» » »

Argh Im A Pirate Tabs (ver.1)

Artists:  A B C D E F G H I J K L M N O P Q R S T U V W X Y Z # 

Argh Im A Pirate Tabs (ver.1)

Zolof The Rock And Roll Destroyer
Rating:
0/5 (0 votes)

Hard to play? Try these video lessons and learn fast.
                100% correct.
Zolof The Rock & Roll Destroyer - Argh... I'm A Pirate!

Intro
|--------------------------------------------------------------|
|--------------------------------------------------------------|
|---7--------7--------7--------7-------------------------------|
|---8--------8--------8--------8-------------------------------|
|---8--------8--------8--------8-------------------------------|
|---6--------6--------6--------6-------------------------------|

Verse (The First Part is strummed normally but the succeeding notes
are palm muted)
|--------------------------------------------------------------|
|--------------------------------------------------------------|
|---------------------------8--8--8--8--10-10-10-10------------|
|---8-----8--8--8--8--8--8--8--8--8--8--10-10-10-10------------|
|---8-----8--8--8--8--8--8--6--6--6--6--8--8--8--8-------------|
|---6-----6--6--6--6--6--6-------------------------------------|

|--------------------------------------------------------------|
|--------------------------------------------------------------|
|---------------------------8--8--8--8--10-10-10-10------------|
|---8--8--8--8--8--8--8--8--8--8--8--8--10-10-10-10------------|
|---8--8--8--8--8--8--8--8--6--6--6--6--8--8--8--8-------------|
|---6--6--6--6--6--6--6--6-------------------------------------|

Verse Lead for Both Verses 1 and 2 (Notes 15~13~11 replaced by 11s
in the second verse)
(Palm Muted)
|--------------------------------------------------------------|
|--------------------------------------------------------------|
|---10-10-10-10-10-10-10-10-10-10-10-10-10-10-10-10------------|
|--------------------------------------------------------------|
|--------------------------------------------------------------|
|--------------------------------------------------------------|
(Starting at the second line still palm muted. Power increases
gradually from the notes 10 and 11)
|--------------------------------------------------------------|
|---15-15-15-13-11-11-11-11-11-11-11-11-11-11-11-11------------|
|---------------------------10-10-10-10-10-10-10-10------------|
|--------------------------------------------------------------|
|--------------------------------------------------------------|
|--------------------------------------------------------------|
(Gradually increasing power and releasing the palm mute)
|--------------------------------------------------------------|
|---11-11-11-11-11-11-11-11-11-11-11-11-11-11-11-11------------|
|---10-10-10-10-10-10-10-10-10-10-10-10-10-10-10-10------------|
|--------------------------------------------------------------|
|--------------------------------------------------------------|
|--------------------------------------------------------------|

Chorus
|--------------------------------------------------------------|
|--------------------------------------------------------------|
|---------------8--8--8--8--------------10-10-10-10------------|
|---5--5--5--5--8--8--8--8--8--8--8--8--10-10-10-10------------|
|---5--5--5--5--6--6--6--6--8--8--8--8--8--8--8--8-------------|
|---3--3--3--3--------------6--6--6--6-------------------------|

Chorus Lead
|--------------------------------------------------------------|
|---11-11-11-11-11-11-11-11-11-11-11-11-11-11-11-11------------|
|---10-10-10-10-10-10-10-10-10-10-10-10-10-10-10-10------------|
|--------------------------------------------------------------|
|--------------------------------------------------------------|
|--------------------------------------------------------------|
(4th line of the chorus)
|---------13-13/15------13-------------------------------------|
|---13-15------------15------15---16---15---13---15-13---------|
|--------------------------------------------------------------|
|--------------------------------------------------------------|
|--------------------------------------------------------------|
|--------------------------------------------------------------|
2nd Verse
|--------------------------------------------------------------|
|--------------------------------------------------------------|
|---------------------------8--8--8--8--10-10-10-10------------|
|---8--8--8--8--8--8--8--8--8--8--8--8--10-10-10-10------------|
|---8--8--8--8--8--8--8--8--6--6--6--6--8--8--8--8-------------|
|---6--6--6--6--6--6--6--6-------------------------------------|
(The Note Before the Pause is strummed normally and then continued with
Palm Muted notes. This Occurs at the 3rd line of the 2nd verse)
|--------------------------------------------------------------|
|--------------------------------------------------------------|
|---------------------------8--8--8--8--10-10-10-10------------|
|---8-----------------------8--8--8--8--10-10-10-10------------|
|---8-----------------------6--6--6--6--8--8--8--8-------------|
|---6----------------------------------------------------------|
(Then finished off with gradual increase in stumming volume also
gradually releasing the palm muting)
|--------------------------------------------------------------|
|--------------------------------------------------------------|
|---------------------------8--8--8--8--10-10-10-10------------|
|---8--8--8--8--8--8--8--8--8--8--8--8--10-10-10-10------------|
|---8--8--8--8--8--8--8--8--6--6--6--6--8--8--8--8-------------|
|---6--6--6--6--6--6--6--6-------------------------------------|

Pre-Ending Riff (Palm Muted Gradually Released Towards End)
|--------------------------------------------------------------|
|--------------------------------------------------------------|
|---------------------------8--8--8--8--10-10-10-10------------|
|---8--8--8--8--8--8--8--8--8--8--8--8--10-10-10-10------------|
|---8--8--8--8--8--8--8--8--6--6--6--6--8--8--8--8-------------|
|---6--6--6--6--6--6--6--6-------------------------------------|

Pre-Ending Riff Lead
|--------------------------------------------------------------|
|---11-11-11-11-11-11-11-11-11-11-11-11-11-11-11-11------------|
|---10-10-10-10-10-10-10-10-10-10-10-10-10-10-10-10------------|
|--------------------------------------------------------------|
|--------------------------------------------------------------|
|--------------------------------------------------------------|
Outro
|--------------------------------------------------------------|
|--------------------------------------------------------------|
|---7--------7--------7--------7-------------------------------|
|---8--------8--------8--------8-------------------------------|
|---8--------8--------8--------8-------------------------------|
|---6--------6--------6--------6-------------------------------|
            
Hard to play? Try these video lessons and learn fast. | Correct




comments powered by Disqus
↑ Back to top | Tablatures and chords are parodies/interpretations of the original songs. You may use it for private study, scholarship, research or language learning purposes only