» » »

Reptilectric Bass tabs (ver.1)

Artists:  A B C D E F G H I J K L M N O P Q R S T U V W X Y Z # 

Reptilectric Bass tabs (ver.1)

Zoe
Rating:
0/5 (0 votes)

Hard to play? Try these video lessons and learn fast.
                Bassist: Ángel Mosqueda 

Intro/Verse
G|----------------------------------|
D|----------------------------------|    x10
A|----------------------------------|
E|-55555555555555554444444444444444-|

Chorus
G|----------|----------|----------|----------|
D|----------|----------|----------|----------|    x5
A|-55555555-|-88888888-|----------|----------|
E|----------|----------|-55555555-|-77777777-|

Verse
G|----------------------------------|
D|----------------------------------|    
A|----------------------------------|
E|-55555555555555554444444444444444-|

Bridge A
G|-------|-------|-------|-------|
D|-------|-------|-------|-------|
A|-5-----|-8-----|-------|-------|
E|-------|-------|-5-----|-7-----|

Chorus
G|----------|----------|----------|----------|
D|----------|----------|----------|----------|    x4
A|-55555555-|-88888888-|----------|----------|
E|----------|----------|-55555555-|-77777777-|

Bridge B
G|-------|-------|-------|-------|
D|-------|-------|-------|-------|
A|-------|-------|-4-----|-5-----|
E|-5-----|-7-----|-------|-------|

G|-------|-------|-------|-------|-------|
D|-------|-------|-------|-------|-------|
A|-8(x)--|-5(x)--|-8(x)--|-5(x)--|-------|
E|-------|-------|-------|-------|-5(x)--|

Chorus
G|----------|----------|----------|----------|
D|----------|----------|----------|----------|    x4
A|-55555555-|-88888888-|----------|----------|
E|----------|----------|-55555555-|-77777777-|

Outro
G|----------------------------------|
D|----------------------------------|    
A|----------------------------------|
E|-55555555555555554444444444444444-|
            
Hard to play? Try these video lessons and learn fast. | Correct




comments powered by Disqus
↑ Back to top | Tablatures and chords are parodies/interpretations of the original songs. You may use it for private study, scholarship, research or language learning purposes only