>
 >
 >
Nada

Nada Bass Tabs

Zoe - Nada chords, tabs, tablatures, lyrics

Guitar lessons | Add/correct | Request | Top 50 tabs Artists:  A B C D E F G H I J K L M N O P Q R S T U V W X Y Z 0-9

Nada Bass Tabs – Zoe

CD, Sheet music, Poster

Do you like Nada? Share with your friends now
Bass TabsChordsTabs
ES MI PRIMER TAB ESCUCHE BIEN LA CANCION
SIGAN EL RITMO ESTA 100% CORRECTA

INTRO (DOS VECES)
G|--------------------------------------------------------------|
D|-----0-0--0-0-0--0-0-0--0-0-0--0-5-5--5-5-5--5-5-5--5-5-5-----|
A|--------------------------------------------------------------|
E|--------------------------------------------------------------|

VERSE (TOCAR 2 VECES) ESTA PARTE ES COMO ARTE DEL
G|----------------------------------------------------------------|
D|----0-0--0-0-0--0-0-0--0-0-0--0-5-5--5-5-5--5-5-5--5-5-5--------|
A|----------------------------------------------------------------|
E|----------------------------------------------------------------|


 G|---------------------------------------------------------------|
 D|---3-3--3-3-3--3-3-3--3-3-3--3--7-7--7-7-7--7-7-7--7-7-7-------|
 A|---------------------------------------------------------------|
 E|---------------------------------------------------------------|

EN ESTA PARTE HAY UN CAMBIO DEL QUE SERIA COMO OTRO VERSO QUE ES ASI

    G|--------------------------------------------------------------------|
    D|------------------------------0-5-5--0-5-5--0-5-5--0-5-5------------|
    A|--0-5-5--0-5-5--0-5-5--0-5-5----------------------------------------|
    E|--------------------------------------------------------------------|

    G|--------------------------------------------------------------------|
    D|-------------------------------7-7-7--7-7-7--7-7-7--7-7-7-----------|
    A|--3-3-3--0-3-3--0-3-3--0-3-3----------------------------------------|
    E|--------------------------------------------------------------------|

    G|----------------------------------------------------------------------|
    D|------------------------0-3-3/7-5--0-5-5--0-5-5--0-5-5--0-5-5---------|
    A|--0-5-5--0-5-5--0-5-5-------------------------------------------------|
    E|----------------------------------------------------------------------|

    G|--------------------------------------------------------------------|
    D|-------------------------------7-7-7--7-7-7--7-7-7--7-7-7-----------|
    A|--3-3-3--0-3-3--0-3-3--0-3-3----------------------------------------|
    E|--------------------------------------------------------------------|

    BRIDGE

    G|-----------------------------|
    D|--5-3------5-3---------------|
    A|------3-1------3-------------|
    E|-----------------------------|




CORO

    G|--------------------------------------------------------------------|
    D|------------------------------0-5-5--5-5--0-5-5--0-5-5--------------|
    A|---5-5--0-5-5--0-5-5--0-5-5-----------------------------------------|
    E|--------------------------------------------------------------------|

    G|----------------------------------|
    D|----------------------------------|
    A|--0-3-3--3-3-3--4-4--4-4-4--5-----|
    E|----------------------------------|

VERSO


    G|--------------------------------------------------------------------|
    D|------------------------------0-5-5--0-5-5--0-5-5--0-5-5------------|
    A|--0-5-5--0-5-5--0-5-5--0-5-5----------------------------------------|
    E|--------------------------------------------------------------------|

    G|--------------------------------------------------------------------|
    D|-------------------------------7-7-7--7-7-7--7-7-7--7-7-7-----------|
    A|--3-3-3--0-3-3--0-3-3--0-3-3----------------------------------------|
    E|--------------------------------------------------------------------|


    G|--------------------------------------------------------------------|
    D|------------------------0-3-3/7-5--0-5-5--0-5-5--0-5-5--0-5-5-------|
    A|--0-5-5--0-5-5--0-5-5-----------------------------------------------|
    E|--------------------------------------------------------------------|

    G|--------------------------------------------------------------------|
    D|-------------------------------7-7-7--7-7-7--7-7-7--7-7-7-----------|
    A|--0-3-3--0-3-3--0-3-3--0-3-3----------------------------------------|
    E|--------------------------------------------------------------------|



     BRIDGE

    G|---------------------------------|
    D|---5-3--------5-3-----10---------|
    A|-------3-1/5------3/10-----------|
    E|---------------------------------|


     CORO

    G|--------------------------------------------------------------------|
    D|------------------------------0-5-5--5-5--0-5-5--0-5-5--------------|
    A|---5-5--0-5-5--0-5-5--0-5-5-----------------------------------------|
    E|--------------------------------------------------------------------|

    G|--------------------------------------|
    D|--------------------------------------|
    A|--0-3-3--3-3-3--4-4--4-4-4------------|
    E|--------------------------------------|

    G|----------------------------------------------------------|
    D|------------------------------0-5-5--5-5--0-5-5--0-5-5----|
    A|---5-5--0-5-5--0-5-5--0-5-5-------------------------------|
    E|----------------------------------------------------------|

    G|------------------------------------|
    D|------------------------------------|
    A|--0-3-3--3-3-3--4-4--4-4-4--5-------|
    E|------------------------------------|


OUTRO

    G|----------------------------------------------------------------------|
    D|--5-5-5-5-5-5-5-5-5-5-5-5-5-5-----------------------------------------|
    A|-------------------------------5-5-5-5-5-5-5-5-5-5-5-5-5-5------------|
    E|----------------------------------------------------------------------|


    G|-----------------------------------------------------------------------|
    D|---5-5-5-5-5-5-5-5-5-5-------------------------------------------------|
    A|------------------------3-3-3-3-3-3-3-3-3--5-5-5-5-5-5-5-5-5-5-5-5-5---|
    E|-----------------------------------------------------------------------|

LEYENDA:

/:SLIDE HACIA ABAJO





Comments


Popular Zoe tabs & chords
Dead Bass Tabs
Rocanroler Chords
Solo Chords
Veneno Chords
Vinyl Chords
No Me Destruyas Tabs
Via Lactea 3 Tabs
Love Can Change So Much Ukulele
Poli Ukulele
Via Lactea Ukulele


Song lyrics



↑ Back to top | Tablatures and chords are parodies/interpretations of the original songs. You may use it for private study, scholarship, research or language learning purposes only
© 2014 AZChords.com Contact us | Privacy policy | DMCA | Add/correct tabs | Request tabs | Top 50 tabs