» » »

Zoe, Luna Tabs (ver.1)

Artists:  A B C D E F G H I J K L M N O P Q R S T U V W X Y Z # 

Luna Tabs (ver.1)

Zoe Tabs
Rating:
4/5 (4 votes)
Luna lessons Tabs too difficult? Try these video lessons and learn fast
                Zoé - Luna
Afinación: standard

Intro/verso:
     F               G             Am              G
e)|-----------------------------------------------------------------|
b)|-----------------------------------------------------------------|
g)|-----------------------------------------------------------------|
d)|-----------------------------------------------------------------| x2
a)|------3-------3------3------3-------7-------7-------5-------5----|
e)|--1-------1-----1-3------3----3-5-------5-----5-3-------3-----3--|


Verso:
      F            G          Am         G
Entiendo que no puedo suplicarle una vez más
       F          G         Am      G
Pero nada se detiene solo vivo para tí
  F            G              Am         G
Dame solo un beso que me alcance hasta morir
           F            G           Am          G
Como un vicio que me duele quiero mirarte a los ojos


Coro:
F7M            G6
Luna no me abandones más
               F7M
que tiendo a recuperarme
                  G6
en la cuna de tus cráteres
  F7M               G6
Silencio se abre la tierra
             F7M                    G6
se alzan los mares al compás del volcán


Repetir intro


Verso 2:
      F            G
Y cuando te me acercas
        Am      G
se acelera mi motor
         F              G
Me da fiebre me hago fuego
         Am        G
y me vuelvo a consumir
  F            G              Am         G
Dame solo un beso que me alcance hasta morir
           F            G           Am          G
Como un vicio que me duele quiero mirarte a los ojos

Arpegio verso 2:
     F                                   G
e)|---------------------------------------------------------------------------|
b)|--10----------------10----------------10----------------10-----------------|
g)|---------------------------------------------------------------------------|
d)|--------10----10----------10----10----------10----10----------10----10-----|
a)|-----12----12----12----12----12----12----12----12----12----12----12----12--|
e)|---------------------------------------------------------------------------|

     Am                                  G
e)|---------------------------------------------------------------------------|
b)|--------------------------------------------------------10-----------------|
g)|--12----------------12----------------12-----------------------------------|
d)|--------10----10----------10----10----------10----10----------10----10-----|
a)|-----12----12----12----12----12----12----12----12----12----12----12----12--|
e)|---------------------------------------------------------------------------|

     F                                   G
e)|---------------------------------------------------------------------------|
b)|--10----------------10----------------10-----------------------------------|
g)|--------------------------------------------------------12-----------------|
d)|--------10----10----------10----10----------10----10----------10----10-----|
a)|-----12----12----12----12----12----12----12----12----12----12----12----12--|
e)|---------------------------------------------------------------------------|

     Am                                  G
e)|---------------------------------------------------------------------------|
b)|--------------------------------------10----------------10-----------------|
g)|--12----------------12-----------------------------------------------------|
d)|--------10----10----------10----10----------10----10----------10----10-----|
a)|-----12----12----12----12----12----12----12----12----12----12----12----12--|
e)|---------------------------------------------------------------------------|


Repetir coro

Outro:

e)|----------------------------------------------------|
b)|----10----------10----------10----------10----------|
g)|----------------------------------------------------|
d)|--------10--10------10--10------10--10------10--10--|
a)|--12--12--12--12--12--12--12--12--12--12--12--12----|
e)|----------------------------------------------------|

e)|----------------------------------------------------|
b)|----------------------------------------------------|
g)|----12----------12----------12----------12----------|
d)|--------10--10------10--10------10--10------10--10--|
a)|--12--12--12--12--12--12--12--12--12--12--12--12----|
e)|----------------------------------------------------|

Acordes usados:
     F  G  Am  F7M  G6
e)|--1--3---0---0----0--|
b)|--1--3---1---1----3--|
g)|--2--0---2---2----4--|
d)|--3--0---2---3----5--|
a)|--3--2---0---3----5--|
e)|--1--3---------------|
            

comments powered by Disqus
↑ Back to top | Zoe Tabs for Luna. Lyrics for acoustic guitar and electric guitar. Tablatures and chords are parodies/interpretations of the original songs. You may use it for private study, scholarship, research or language learning purposes only