array
(
    
'labiosrotos' => 'labiosrotos'
    'zoe' 
=> 'zoe'
)
Labios Rotos Tabs (ver. 1) by Zoe @ AZ CHORDS.COM
» » »

Labios Rotos Tabs (ver.1)

Artists:  A B C D E F G H I J K L M N O P Q R S T U V W X Y Z # 

Labios Rotos Tabs (ver.1)

Zoe
Rating:
0/5 (0 votes)

Hard to play? Try these video lessons and learn fast.
                Riff 1-Vibrafono                                                                              

e|-----12----12-----|-----10----10-----|-----10----10-----|-10----10----10---|
B|---12----12----12-|---12----12----12-|---12----12----12-|-----12----12-----|
G|-12----12----12---|-12----12----12---|-11----11----11---|---11----11----11-|
D|------------------|------------------|------------------|------------------|
A|------------------|------------------|------------------|------------------|
E|------------------|------------------|------------------|------------------|

Riff 2-Gutarra
e|-----5-----5-------|---0-2---0-2---0-2-|
B|-5-5---5-5---5-5-8-|-3-----3-----3-----|
G|-------------------|-------------------|
D|-------------------|-------------------|
A|-------------------|-------------------|
E|-------------------|-------------------|

Riff 3-Clavicordio
e|-----7----7----|-----7----7----|-----7----7----|-----7----7----|
B|---8----8----8-|---8----8----8-|---7----7----7-|---7----7----7-|
G|-9----9----9---|-7----7----7---|-7----7----7---|-7----7----7---|
D|---------------|---------------|---------------|---------------|
A|---------------|---------------|---------------|---------------|
E|---------------|---------------|---------------|---------------|

e|-----7----7----|-----7----7----|----7----7-----|-7-|
B|---8----8----8-|---8----8----8-|---7----7----7-|---|
G|-9----9----9---|-7----7----7---|-7----7----7---|---|
R|---------------|---------------|---------------|---|
A|---------------|---------------|---------------|---|
E|---------------|---------------|---------------|---|



Riff 4-Gutarra
e|-----5-----5-----|-3-----3-----3---|---0-2---0-2---0-|-2---0-2---0-2---|
B|-5-5---5-5---5-5-|---5-5---5-5---5-|-3-----3-----3---|---3-----3-----3-|
G|-----------------|-----------------|-----------------|-----------------|
R|-----------------|-----------------|-----------------|-----------------|
A|-----------------|-----------------|-----------------|-----------------|
E|-----------------|-----------------|-----------------|-----------------|

Riff 5-Clavicordio 
e|-------4-6-4-----------|-------4-6-4-----------|------5----------|
B|---4-7-------7-4---4-7-|---4-7-------7-4---4-7-|-6------6-----5--|
G|-6---------------6-----|-6---------------6-----|-----------------|
R|-----------------------|-----------------------|-----------------|
A|-----------------------|-----------------------|-----------------|
E|-----------------------|-----------------------|-----------------|





Intro: Em G Bm x3
       (Riff 1)x3
       (Riff 2)x2
                  Em
Regalame tu corazón
        G            Bm
déjame entrar a ese lugar
                Em
donde nacen las flores
            Bm
donde nace el amor
                    Em(riff 1)x2     G                Bm
entrégame tus labios rotos los quiero besar los quiero curar
            Em              Bm
los voy a cuidar con todo mi amor


D#m        F#
Es raro el amor
D#m        F#
es raro el amor
B                       Bm
que se te aparece cuando menos piensas
D#m        F#
Es raro el amor
D#m        F#
es raro el amor
B                        Bm                 D#m F# F E
no importa la distancia el tiempo ni la edad

Em Bm X 2
(Riff 3)
                      Em           G
Moja el desierto de mi alma con tu mirar
             Bm                   Em
con tu tierna voz con tu mano en mi mano
           Bm
por la eternidad y
                        (Riff 4)x2
                     Em(Riff 1)x2     G                Bm
entrégame esos labios rotos los quiero besar los quiero curar
            Em              Bm
los voy a cuidar con todo mi amor

D#m        F#
Es raro el amor
D#m        F#
es raro el amor
B                      Bm
que se te aparece cuando menos piensas
D#m        F#
Es raro el amor
D#m        F#
es raro el amor
B                        Bm                D#m F# D#m F# B Bm  x 2
no importa la distancia el tiempo ni la edad

D#m       F#
Amor amor amor amor
D#m       F#
amor amor amor amor
B         Bm
amor amor amor amor
D#m  F# D#m F# F E
Amor(Riff 5)
        
            
Hard to play? Try these video lessons and learn fast. | Correct




comments powered by Disqus
↑ Back to top | Tablatures and chords are parodies/interpretations of the original songs. You may use it for private study, scholarship, research or language learning purposes only