» » »

Dead Bass tabs (ver.2)

Artists:  A B C D E F G H I J K L M N O P Q R S T U V W X Y Z # 

Dead Bass tabs (ver.2)

Zoe
Rating:
0/5 (0 votes)

Hard to play? Try these video lessons and learn fast.
                esta version la saqué del concierto en vivo 281107, para tocarla parecida en vivo asi 
es una rola muy buena jeje.


intro... asi va hasta l coro.

G.--------------------------------.
D.--------------------------------.
A.-4-4-4-4-4-4-4-4----------------.
E.-----------------0-0-0-0-0-0-0-0.


coro... la primera parte solo se repite una vz, y la segunda parte 2 veces.

G.-----------------------------------------.
D.-----------------------------------------.
A.-4-4-4-4-2-2-2-2-0-0-0-0-2-2-2-2-5-5-5-5-.
E.-----------------------------------------.

G.----------------------------------------.
D.----------------------------------------.
A.-9-9-9-9-15-15-15-15-12-12-12-12-4-4-4-4.
E.----------------------------------------.


puente...

G.--------------------------------.
D.--------------------------------.
A.-7-7-7-7-7-7-7-7-4-4-4-4-4-4-4-4.
E.--------------------------------.


y luego empieza desde l principio la cancion.

no esta demás decir q necesitan oir la rola para agarrarle chidoo.

se la dedico a mi super novia sharon!!

te kiero ranita mensaaaa!!

aunque no t guste dead!
            
Hard to play? Try these video lessons and learn fast. | Correct




comments powered by Disqus
↑ Back to top | Tablatures and chords are parodies/interpretations of the original songs. You may use it for private study, scholarship, research or language learning purposes only