>
 >
 >
Corazon Atomico

Corazon Atomico Bass Tabs

Zoe - Corazon Atomico chords, tabs, tablatures, lyrics

Guitar lessons | Add/correct | Request | Top 50 tabs Artists:  A B C D E F G H I J K L M N O P Q R S T U V W X Y Z 0-9

Corazon Atomico Bass Tabs – Zoe

CD, Sheet music, Poster

Do you like Corazon Atomico? Share with your friends now
Bass Tabs
G|----11---11----12-12---11---11-----12-12-|   )
D|-00----0----00-------0----0----0-0-------|   )
A|-----------------------------------------|   )
E|-----------------------------------------|   )
                                              X 2
G|----11---11----11-----11---11----11---|      )
D|-99----9----99----999----9----99----9-|      )
A|--------------------------------------|      )
E|--------------------------------------|      )

Dime Si Me Estoy Volviendo Loco.............

G|-----11---11-----12-12---11---11-----12-12-|   )
D|-0-0----0----0-0-------0----0----0-0-------|   )
A|-------------------------------------------|   )
E|-------------------------------------------|   )
                                                X 5
G|-----11---11-----11-------11---11-----11---|   )
D|-9-9----9----9-9----9-9-9----9----9-9----9-|   )
A|-------------------------------------------|   )
E|-------------------------------------------|   )

G|-----11---11-----12-12---11---11-----12-12-I        )
D|-0-0----0----0-0-------0----0----0-0-------I        )
A|-------------------------------------------I        )
E|-------------------------------------------I        )
                                                     X 1
G|-----11---11-----11------------------------------I  )
D|-9-9----9----9-9------------12----12-------12----I  )
A|--------------------6\10-10----10----10-10----10-I  )
E|-------------------------------------------------I  )

G-----11---11-----12-12---11---11-----12-12-I     )
D-0-0----0----0-0-------0----0----0-0-------I     )
A-------------------------------------------I     )
E-------------------------------------------I     )
                                                 X 1
G-----11---11-----11-------11---11-----11------I  )
D-9-9----9----9-9----9-9-9----9----9-9----9/-1-I  )
A----------------------------------------------I  )
E----------------------------------------------I  )

Coro......

Acaricia Mi Alma...........

G-----------------------------------------I
D-----------------------------------------I
A-----5---5-----5--------9---9-----9------I X 3
E-3-3---3---3-3---3\-7-7---7---7-7---7/-3-I

G-------------------------------------------------------I
D-------------------------------------------------------I
A-----5---5-----5-------5---5-----5-------5---5-----5---I X 1
E-3-3---3---3-3---3-3-3---3---3-3---3-3-3---3---3-3---3-I

Bridge.....

G-17-17--17x-I
D-15-15--15x-I
A------------I X 8
E------------I

Parece Que Perdi El Control..........

G|----11---11----12-12---11---11-----12-12-|   )
D|-00----0----00-------0----0----0-0-------|   )
A|-----------------------------------------|   )
E|-----------------------------------------|   )
                                              X 2
G|----11---11----11-----11---11----11---|      )
D|-99----9----99----999----9----99----9-|      )
A|--------------------------------------|      )
E|--------------------------------------|      )

G-----11---11-----12-12---11---11-----12-12-I     )
D-0-0----0----0-0-------0----0----0-0-------I     )
A-------------------------------------------I     )
E-------------------------------------------I     )
                                                 X 1
G-----11---11-----11-------11---11-----11------I  )
D-9-9----9----9-9----9-9-9----9----9-9----9/-1-I  )
A----------------------------------------------I  )
E----------------------------------------------I  )

i just don't know where im going..........

G------------------------------I
D------------------------------I
A------------------------------I
E------------------------------I

Coro.....

Acaricia Mi Alma.........

G-----------------------------------------I
D-----------------------------------------I
A-----5---5-----5--------9---9-----9------I X 3
E-3-3---3---3-3---3\-7-7---7---7-7---7/-3-I

G-------------------------------------------------------I
D-------------------------------------------------------I
A-----5---5-----5-------5---5-----5-------5---5-----5---I X 1
E-3-3---3---3-3---3-3-3---3---3-3---3-3-3---3---3-3---3-I

G-----------------------------------------I
D-----------------------------------------I
A-----5---5-----5--------9---9-----9------I X 3
E-3-3---3---3-3---3\-7-7---7---7-7---7/-3-I

G-------------------------------------------------------I
D-------------------------------------------------------I
A-----5---5-----5-------5---5-----5-------5---5-----5---I X 1
E-3-3---3---3-3---3-3-3---3---3-3---3-3-3---3---3-3---3-I

Otro......

G-17-17--17x-I
D-15-15--15x-I
A------------I X 15
E------------I

End 





Comments


Popular Zoe tabs & chords
Soce Bass Tabs
Paula Chords
Como Tu Tabs
Conspirador Tabs
Nunca Intro Tabs
Side Efects Tabs
Yoo Woo Intro Tabs
Energia Ukulele
Love Can Change So Much Ukulele
Rocanroler Ukulele


Song lyrics



↑ Back to top | Tablatures and chords are parodies/interpretations of the original songs. You may use it for private study, scholarship, research or language learning purposes only
© 2014 AZChords.com Contact us | Privacy policy | DMCA | Add/correct tabs | Request tabs | Top 50 tabs