>
 >
 >
Como Tu

Como Tu Guitar Tabs

Zoe - Como Tu chords, tabs, tablatures, lyrics

Guitar lessons | Add/correct | Request | Top 50 tabs Artists:  A B C D E F G H I J K L M N O P Q R S T U V W X Y Z 0-9

Como Tu Guitar Tabs – Zoe

CD, Sheet music, Poster

Do you like Como Tu? Share with your friends now
Tabs


     E  E  E  E  Q    E  E   
E||--x----------------------|
B||--x--x--x--x--6----6--6--|
G||--x--7--7--x--7----7--5--|
D||--x--7--7--x--7----7--7--|
A||--x--5--5--x--5----5--5--|
E||-------------------------|


  E  E  E  Q    E  E  E   
-------------------------|
--x--x--x--6----6--6--6--|
--x--x--x--7----7--5--7--|
--x--x--x--7----7--7--7--|
--x--x--x--5----5--5--5--|
-------------------------|


  E  E  E  Q    E  E  E   
-------------------------|
--x--x--x--1----1--1--1--|
--x--x--x--2----2--3--2--|
--x--x--x--3----3--x--3--|
--x--x--x--3----3--3--3--|
-------------------------|


  E  E   E  Q    E  E  E   
--------------------------|
--x--x---x--1----1--1--1--|
--x--3b--x--2----2--3--2--|
--x--x---x--3----3--x--3--|
--x--x---x--3----3--3--3--|
--------------------------|


  E  E   E   E   E   E   Q     
------------------------------|
--x--x---8---8---8--11b--8----|
--x--x---9---9---9------------|
--x--x--10--10--10------------|
--x--x--10--10--10------------|
------------------------------|


  E  E  E  E  E  E   E  E   
---------------------------|
--x--x--6--6--6--9b--6-----|
--x--x--7--7--7---------9--|
--x--x--8--8--8------------|
--x--x--8--8--8------------|
---------------------------|


  E  E  Q    E  E  E  E         
-------------------------|-----|
-----x--6----6--6--6--6--|-----|
--x--x--7----7--7--7--7--|-----|
--x--x--7----7--7--7--7--|-----|
--x-----5----5--5--5--5--|-----|
-------------------------|-----|


  E  E  E  Q    E  E  E   
-------------------------|
--x--x--x--6----6--6--6--|
--x--x--x--7----7--5--7--|
--x--x--x--7----7--7--7--|
--x--x--x--5----5--5--5--|
-------------------------|


  E  E  E  Q    E  E  E   
-------------------------|
--x--x--x--6----6--6--6--|
--x--x--x--7----7--5--7--|
--x--x--x--7----7--7--7--|
--x--x--x--5----5--5--5--|
-------------------------|


  E  E  E  Q    E  E   E   
--------------------------|
--x--x--x--1----1--1---1--|
--x--x--x--2----2--3b--2--|
--x--x--x--3----3--x---3--|
--x--x--x--3----3--3---3--|
--------------------------|


  E  E  E  Q    E  E  E   
-------------------------|
--x--x--x--1----1--1--1--|
--x--x--x--2----2--3--2--|
--x--x--x--3----3--x--3--|
--x--x--x--3----3--3--3--|
-------------------------|


  E  E   Q     E  E   E    E    
-------------------------------|
--x--x---8-----8--8--11b--11b--|
--x--x---9-----9---------------|
--x--x--10----10---------------|
--x--x--10----10---------------|
-------------------------------|


  E  E  Q    E  Q    E   
------------------------|
--x--x--6----6--6----6--|
--x--x--7----7--7----7--|
--x--x--8----8--8----8--|
--x--x--8----8--8----8--|
------------------------|


  E  E  Q    E  E  E  E         
-------------------------|-----|
-----x--6----6--6--6--6--|-----|
--x--x--7----7--7--7--7--|-----|
--x--x--7----7--7--7--7--|-----|
--x-----5----5--5--5--5--|-----|
-------------------------|-----|


  E  E  E  Q    E  E  E   
-------------------------|
--x--x--x--6----6--7--6--|
--x--x--x--7----7--5--7--|
--x--x--x--7----7--7--7--|
--x--x--x--5----5--5--5--|
-------------------------|


  E  E  E  Q    E  E  E   
-------------------------|
--x--x--x--6----6--7--6--|
--x--x--x--7----7--5--7--|
--x--x--x--7----7--7--7--|
--x--x--x--5----5--5--5--|
-------------------------|


  E  E  E  Q    E  E  E   
-------------------------|
--x--x--x--1----1--1--1--|
--x--x--x--2----2--3--2--|
--x--x--x--3----3--x--3--|
--x--x--x--3----3--3--3--|
-------------------------|


  E  E  E  Q    E  E  E   
-------------------------|
--x--x--x--1----1--1--1--|
--x--x--x--2----2--3--2--|
--x--x--x--3----3--x--3--|
--x--x--x--3----3--3--3--|
-------------------------|


  E  E   Q     E   Q    E   
---------------------------|
--x--x---8-----x---8----x--|
--x--x---9-----x---9----x--|
--x--x--10-----x--10----x--|
--x--x--10-----x--10----x--|
---------------------------|


  E  E  E  E  E  E  E  E   
--------------------------|
--x--x--x--x--x--x--x--x--|
--x--x--x--x--x--x--x--x--|
--x--x--x--x--x--x--x--x--|
--x--x--x--x--x--x--x--x--|
--------------------------|


  E  E  Q    E  E  E  E   
-------------------------|
-----x--6----6--6--6--6--|
--x--x--7----7--7--7--7--|
--x--x--7----7--7--7--7--|
--x-----5----5--5--5--5--|
-------------------------|


   Q     E   Q     E   E   E   
------------------------------|
--12----12--12----12--12--12--|
--12----12--12----12--12--12--|
--12----12--12----12--12--12--|
--10----10--10----10--10--10--|
------------------------------|


   E   E   Q     E   E   Q     
------------------------------|
--12--12--12----12--12--12----|
--12--12--12----12--12--12----|
--12--12--12----12--12--12----|
--10--10--10----10--10--10----|
------------------------------|


  E  E  E  E  E  E  E  E   
--------------------------|
--x--6--6--x--6--6--x--6--|
--x--7--7--x--7--7--x--7--|
--x--8--8--x--8--8--x--8--|
--x--8--8--x--8--8--x--8--|
--------------------------|


     TP                   
  E  H          E  E  E   
-------------------------|
--6--9br--------L--L--L--|
-------------------------|
-------------------------|
-------------------------|
-------------------------|


  E  E  E  E  E  E  E  E   
--------------------------|
--6--6--x--6--6--x--6--6--|
--5--5--x--5--5--x--5--5--|
--7--7--x--7--7--x--7--7--|
--5--5--x--5--5--x--5--5--|
--------------------------|


     TP                   
  E  H          E  E  E   
-------------------------|
--6--9br--------L--L--L--|
-------------------------|
-------------------------|
-------------------------|
-------------------------|


  E  E  E  E  E  E  E  E   
--------------------------|
--x--6--6--x--6--6--x--6--|
--x--7--7--x--7--7--x--7--|
--x--8--8--x--8--8--x--8--|
--x--8--8--x--8--8--x--8--|
--------------------------|


     TP                   
  E  H          E  E  E   
-------------------------|
--6--9br--------L--L--L--|
-------------------------|
-------------------------|
-------------------------|
-------------------------|


  E  E  E  E  E  E  E  E   
--------------------------|
--6--6--x--6--6--x--6--6--|
--7--7--x--7--7--x--7--7--|
--7--7--x--7--7--x--7--7--|
--5--5--x--5--5--x--5--5--|
--------------------------|


  E  E  E  E  E  E  E  E         
--5--5-----5--5-----5--5--|-----|
--5--5--x--5--5--x--5--5--|-----|
--5--5--x--5--5--x--5--5--|-----|
--7--7--x--7--7--x--7--7--|-----|
--7--7--x--7--7--x--7--7--|-----|
--5--5-----5--5-----5--5--|-----|


   W                    W                 
---------------------|-------------------|
--15-----------------|--L----------------|
--17b----------------|--L----------------|
---------------------|-------------------|
---------------------|-------------------|
---------------------|-------------------|


   W                    W                 
---------------------|-------------------|
--12-----------------|--L----------------|
--14b----------------|--L----------------|
---------------------|-------------------|
---------------------|-------------------|
---------------------|-------------------|


   W                     W                  
---------------------|---------------------|
--13-----------------|--11-----------------|
--15b----------------|--13b----------------|
---------------------|---------------------|
---------------------|---------------------|
---------------------|---------------------|


   W                                      
---------------------|-------------------|
---8-----------------|-------------------|
--10b----------------|-------------------|
---------------------|-------------------|
---------------------|-------------------|
---------------------|-------------------|


  E  E  E  Q     E  E  E   
--------------------------|
--x--x--x-----------------|
--x--x--x--7b----5--7--5--|
--x--x--x-----------------|
--x--x--x-----------------|
--------------------------|


  E  E  E  Q     E  E  E   
--------------------------|
--x--x--x-----------------|
--x--x--x--7b----5--7--5--|
--x--x--x-----------------|
--x--x--x-----------------|
--------------------------|


  E  E  E  Q     E  E  E   
--------------------------|
--x--x--x-----------------|
--x--x--x--3b----1--3--1--|
--x--x--x-----------------|
--x--x--x-----------------|
--------------------------|


  E  E  E  Q    E   E   E   
---------------------------|
--x--x--x------------------|
--x--x--x--1----3b--3b--1--|
--x--x--x------------------|
--x--x--x------------------|
---------------------------|


  E  E   E   E    E   E   E  E   
--------------------------------|
--x--x---x--10b--10b--8--10--8--|
--x--x---x----------------------|
--x--x---x----------------------|
--x--x---x----------------------|
--------------------------------|


  E  E   E  E  E  E  E  E   
---------------------------|
--6--6---x--6--x--6--6--6--|
--7--7---x--7--x--7--7--7--|
--8--8---x--8--x--8--8--8--|
--8--8---x--8--x--8--8--8--|
---------------------------|


  E  E  E  Q    E  E  E         
-------------------------|-----|
--x--x--x--6----6--6--6--|-----|
--x--x--x--7----7--5--7--|-----|
--x--x--x--7----7--7--7--|-----|
--x--x--x--5----5--5--5--|-----|
-------------------------|-----|


  E  E  E  Q    E  E  E   
-------------------------|
--x--x--x--6----6--6--6--|
--x--x--x--7----7--5--7--|
--x--x--x--7----7--7--7--|
--x--x--x--5----5--5--5--|
-------------------------|


  E  E  E  Q    E  E  E   
-------------------------|
--x--x--x--6----6--6--6--|
--x--x--x--7----7--5--7--|
--x--x--x--7----7--7--7--|
--x--x--x--5----5--5--5--|
-------------------------|


  E  E  E  Q    E  E  E   
-------------------------|
--x--x--x--1----1--1--1--|
--x--x--x--2----2--3--2--|
--x--x--x--3----3--x--3--|
--x--x--x--3----3--3--3--|
-------------------------|


  E  E  E  Q    E  E  E   
-------------------------|
--x--x--x--1----1--1--1--|
--x--x--x--2----2--3--2--|
--x--x--x--3----3--x--3--|
--x--x--x--3----3--3--3--|
-------------------------|


  E  E   Q     E   Q    E   
---------------------------|
--x--x---8-----x---8----x--|
--x--x---9-----x---9----x--|
--x--x--10-----x--10----x--|
--x--x--10-----x--10----x--|
---------------------------|


  E  E  E  E  E  E  E  E   
--------------------------|
--x--x--x--x--x--x--x--x--|
--x--x--x--x--x--x--x--x--|
--x--x--x--x--x--x--x--x--|
--x--x--x--x--x--x--x--x--|
--------------------------|


  E  E  Q    E  E  E  E   
-------------------------|
-----x--6----6--6--6--6--|
--x--x--7----7--7--7--7--|
--x--x--7----7--7--7--7--|
--x-----5----5--5--5--5--|
-------------------------|


   Q     E   Q     E   E   E   
------------------------------|
--12----12--12----12--12--12--|
--12----12--12----12--12--12--|
--12----12--12----12--12--12--|
--10----10--10----10--10--10--|
------------------------------|


   E   E   Q     E   E   Q     
------------------------------|
--12--12--12----12--12--12----|
--12--12--12----12--12--12----|
--12--12--12----12--12--12----|
--10--10--10----10--10--10----|
------------------------------|


  E  E  E  E  E  E  E  E   
--------------------------|
--x--6--6--x--6--6--x--6--|
--x--7--7--x--7--7--x--7--|
--x--8--8--x--8--8--x--8--|
--x--8--8--x--8--8--x--8--|
--------------------------|


     TP                   
  E  H          E  E  E   
-------------------------|
--6--9br--------L--L--L--|
-------------------------|
-------------------------|
-------------------------|
-------------------------|


  E  E  E  E  E  E  E  E   
--------------------------|
--6--6--x--6--6--x--6--6--|
--5--5--x--5--5--x--5--5--|
--7--7--x--7--7--x--7--7--|
--5--5--x--5--5--x--5--5--|
--------------------------|


     TP                   
  E  H          E  E  E   
-------------------------|
--6--9br--------L--L--L--|
-------------------------|
-------------------------|
-------------------------|
-------------------------|


  E  E  E  E  E  E  E  E   
--------------------------|
--x--6--6--x--6--6--x--6--|
--x--7--7--x--7--7--x--7--|
--x--8--8--x--8--8--x--8--|
--x--8--8--x--8--8--x--8--|
--------------------------|


     TP                   
  E  H          E  E  E   
-------------------------|
--6--9br--------L--L--L--|
-------------------------|
-------------------------|
-------------------------|
-------------------------|


  E  E  E  E  E  E  E  E   
--------------------------|
--6--6--x--6--6--x--6--6--|
--7--7--x--7--7--x--7--7--|
--7--7--x--7--7--x--7--7--|
--5--5--x--5--5--x--5--5--|
--------------------------|


  E  E  E  E  E  E  E  E   
--5--5-----5--5-----5--5--|
--5--5--x--5--5--x--5--5--|
--5--5--x--5--5--x--5--5--|
--7--7--x--7--7--x--7--7--|
--7--7--x--7--7--x--7--7--|
--5--5-----5--5-----5--5--|


  E  E  E  E  Q    E  E   
--------------5----------|
--------6----------6-----|
-----7-----7----------7--|
-------------------------|
-------------------------|
-------------------------|


  E  E  E  E  Q    E  E   
--------------5----------|
--------5----------5-----|
-----5-----5----------5--|
-------------------------|
-------------------------|
-------------------------|


  E  E  E  E  Q    E  E   
--------------8----------|
--------8----------8-----|
-----9-----9----------9--|
-------------------------|
-------------------------|
-------------------------|


  E   E   E   E   Q     E   E   
-----------------10------------|
---------11------------11------|
-----12------12------------12--|
-------------------------------|
-------------------------------|
-------------------------------|


  E  E  E  E  Q    E  E   
--------------5----------|
--------6----------6-----|
-----7-----7----------7--|
-------------------------|
-------------------------|
-------------------------|


  E  E  E  E  Q    E  E   
--------------5----------|
--------5----------5-----|
-----5-----5----------5--|
-------------------------|
-------------------------|
-------------------------|


  E  E  E  E  Q    E  E   
--------------8----------|
--------8----------8-----|
-----9-----9----------9--|
-------------------------|
-------------------------|
-------------------------|


  E   E   E   E   Q     E   E   
-----------------10------------|
---------11------------11------|
-----12------12------------12--|
-------------------------------|
-------------------------------|
-------------------------------|


  E  E   E  E  Q     E  E   
---------------8-----------|
--------10----------10-----|
-----9------9-----------9--|
---------------------------|
---------------------------|
---------------------------|


   Q     E   E   E   E   E   E   
--10----10--10--10--10--10--10--|
--------------------------------|
--------------------------------|
--------------------------------|
--------------------------------|
--------------------------------|


  E  E  E  E  E  E  E  E   
--------------------------|
--x--6--6--x--6--6--x--6--|
--x--7--7--x--7--7--x--7--|
--x--8--8--x--8--8--x--8--|
--x--8--8--x--8--8--x--8--|
--------------------------|


     TP                   
  E  H          E  E  E   
-------------------------|
--6--9br--------L--L--L--|
-------------------------|
-------------------------|
-------------------------|
-------------------------|


  E  E  E  E  E  E  E  E   
--------------------------|
--6--6--x--6--6--x--6--6--|
--5--5--x--5--5--x--5--5--|
--7--7--x--7--7--x--7--7--|
--5--5--x--5--5--x--5--5--|
--------------------------|


     TP                   
  E  H          E  E  E   
-------------------------|
--6--9br--------L--L--L--|
-------------------------|
-------------------------|
-------------------------|
-------------------------|


  E  E  E  E  E  E  E  E   
--------------------------|
--x--6--6--x--6--6--x--6--|
--x--7--7--x--7--7--x--7--|
--x--8--8--x--8--8--x--8--|
--x--8--8--x--8--8--x--8--|
--------------------------|


     TP                   
  E  H          E  E  E   
-------------------------|
--6--9br--------L--L--L--|
-------------------------|
-------------------------|
-------------------------|
-------------------------|


  E  E  E  E  E  E  E  E   
--------------------------|
--6--6--x--6--6--x--6--6--|
--7--7--x--7--7--x--7--7--|
--7--7--x--7--7--x--7--7--|
--5--5--x--5--5--x--5--5--|
--------------------------|


  E  E  E  E  E  E  E  E                     
--5--5-----5--5-----5--5--|-----|-----|-----|
--5--5--x--5--5--x--5--5--|-----|-----|-----|
--5--5--x--5--5--x--5--5--|-----|-----|-----|
--7--7--x--7--7--x--7--7--|-----|-----|-----|
--7--7--x--7--7--x--7--7--|-----|-----|-----|
--5--5-----5--5-----5--5--|-----|-----|-----|





Comments


Popular Zoe tabs & chords
Va Lactea 2 Bass Tabs
Peace And Love Chords
Resiste Chords
Virgin Snow Chords
Human Space Volt Tabs
Luna Tabs
Miel Tabs
Morning Watts Tabs
Via Lactea 4 Tabs
Poli Ukulele


Song lyrics



↑ Back to top | Tablatures and chords are parodies/interpretations of the original songs. You may use it for private study, scholarship, research or language learning purposes only
© 2014 AZChords.com Contact us | Privacy policy | DMCA | Add/correct tabs | Request tabs | Top 50 tabs